Whotabs – The Definitive Online Tablature and Gear Resource for The Who since 1997

Return to Whotabs

Bargain – guitar tab

Bargain | guitar tab
By The Who
>From Who's Next, 1971
Written by Pete Townshend (c)1971 Fabulous Music Ltd

#----------------------------------PLEASE NOTE---------------------------------#
#This file is the author's own work and represents their interpretation of the #
#song. You may only use this file for private study, scholarship, or research. #
#------------------------------------------------------------------------------#

==============                                                        
transcribed by     rev1 2001-05-16         Whotabs                    
litgo@aol.com      rev2 2002-10-12         www.thewho.net/whotabs     
==============                                                        

Electric: Tune down 1/2 step (Eb Ab Db Gb Bb Eb)
Acoustic: Tune down 1/2 step; capo on 7 (12-string on record)
                             (Bb Eb Ab Db F Bb)

[chords]  (electric)  (acoustic w/capo 7)
Bb7sus4    xx4252      79797x and 797977
Bb7        xx4242      79787x and 797877
Bb         x244xx      799xxx or 799 11 99
Ab         x022xx      xx79 10 9
Ab6          -         11111x
F#           -         x10 9 7 8 x
Db           -         10 9 7 7 xx
Ab/Bb        -         xx11 9 10 x
Eb         022400 or   x799xx or x79997  
           022100
Eb5        02xxxx      x799xx
Dbadd9     xx0230      10 x 77 10 10
Eb6sus4    042200      x799 10 x
Gb         3x00xx      x10 9 7 8 x
Eb7        020100
Eb/Db                  10x99xx

[bridge chords; electric tacit (I've put them in 
for single guitar arrg, e.g., Who's Missing)]
Eb         xx2100      x7999x (xx1346; second time)
Ebmaj7/D   xx1100      11 7999x
Ebadd9/Db  xx0100      10 7797x
Ebsus2/C   x02200      97797x      
Dbadd9     xx0230      10 x 77 10 10
Fsus4      244422      99 11 11 99
F          244322      99 11 11 x x

[Note: Leads are approximate. Leads are transcribed for electric/Eb tuning;
chords symbols above leads are for acoustic/capo]


|Bb7sus4    |           |Bb7        |           |Bb7sus4    |           |Bb   |   |
[acoustic]                                                                        |
|-----------|-----------|-----------|-----------|-----------|-----------|-----|---|
|7-----7----|7-----7----|7-----7----|7-----7----|7-----7----|7-----7----|7----|---|
|9-----9----|9-----9----|8-----8----|8-----8----|9-----9----|9-----9----|8----|---|
|7-----7----|7-----7----|7-----7----|7-----7----|7-----7----|7-----7----|7----|---|
|9-9---9-9--|9-9---9-9--|9-9---9-9--|9-9---9-9--|9-9---9-9--|9-9---9-9--|9----|---|
|7-7-7-7-7-7|7-7-7-7-7-7|7-7-7-7-7-7|7-7-7-7-7-7|7-7-7-7-7-7|7-7-7-7-7-7|7----|---|
[electric 1]                                                                      |
|-----------|-----------|-----------|-----------|-----------|-----------|-----|---|
|-----------|-----------|-----------|-----------|-----------|-----------|-----|---|
|<6-<13-----|----<11-<9-|<11-<8-----|--------<9-|<6--<13----|---<11--<9-|<16--|---|
|-----------|-----------|-----------|-----------|-----------|-----------|-----|---|
|<4-<11-----|----<9--<7-|<9--<6-----|--------<7-|<4--<11----|---<9---<7-|<14--|--\|
|-----------|-----------|-----------|-----------|-----------|-----------|-----|---|
 [with volume pedal for swells]

[verse]
[acoustic; note bass notes as implied by bass]
(Ab6)|Bb    Bb/F   Ab6/Bb |F# Db  Ab/Bb Eb    Ab6 |
  I'd gladly lose me to find you
     [acoustic]                                   |
 ----|--------------------|-----------------------|
 ----|--------------------|----------10-9---------|
 ----|--------------------|7--7------9--9---------|
 ---7|9----9-9-----7------|9--7------11-9------7--|
 ---7|9----9-9-----7------|10-9----------------7--|
 ---7|7----7-7-----7------|---10---------------7--|
     [electric 1]                                 |
     |Bb                  |           Ab Eb5      |
 ----|--------------------|-----------------------|
 ----|--------------------|-----------------------|
 ----|4-------------------|--------x--2-----------|
 ---4|4-------------------|--------x--2-----------|
 ---2|2-------------------|--------x--0--2-----0--|
 ----|--------------------|--------------0--------|

[acoustic]
   |Bb    Bb/F   Ab6/Bb |F# Db  Ab/Bb Eb    Ab6 |
[electric]
   |Bb                  |         Ab  Eb
I'd gladly give up all I had

  |Bb    Bb/F   Ab6/Bb |Dbadd9             |Eb     |Eb6sus4 Db Eb6sus4 Db |
  |Bb                  |Dbadd9             |Eb     | 
To find you, I'd suffer anything and be glad
                                           [acoustic]                     |
                                           |-------|----------------------|
                                           |-------|---8-------8----------|
                                           |9--9-9-|9--9---7---9--7--7----|
                                           |9--9-9-|9--11--7---11-7--7---7|
                                           |7--7-7-|7--7-------7---------7|
                                           |-------|-------10-----10-10--7|
                                           [electric 1]                   |
                                           |--0----|-0--0--0--0--0--0-----|
                                           |--0----|/12-10-9--7--5--3-----|
                                           |-------|----------------------|
                                           |-------|----------------------|
                                           |-------|----------------------|
                                           |0------|----------------------|

    |Bb    Bb/F    Ab6/Bb |F# Db  Ab/Bb Eb    Ab6 |
    |Bb                   |         Ab  Eb
I'll pay any price just to get you

    |Bb     Bb/F    Ab6/Bb  |F# Db  Ab/Bb Eb    Ab6 |
    |Bb                     |         Ab  Eb
I'll work all my life, and I will

  |Bb   Bb/F  Ab6/Bb|Dbadd9                   |Eb Eb6sus4|E Eb6sus4 Eb |
  |Bb               |Dbadd9                   |Eb        |             |  
To win you I'd stand naked, stoned and stabbed                (I'd call...)
                                              [electric 1]
                                              |--0---0---|0---0--------|
                                              |--0-2---3-|--2-0--------|
                                              |--1-2---4-|--2-1--------|
                                              |----------|----2--------|
                                              |----------|-------------|
                                              |0---------|-------------|

               |Gb          |Ab         |Eb          |                 |Eb      |
I'd call that a bargain, the best I ever had                                 The
               |[acoustic]
               |------------|-----------|------------|-----------------|--------
               |8-----------|10---------|------------|-----------------|--------
               |7-----------|9----------|9-----------|--------------9/9|9--9---9
               |9-----------|7----------|9-----------|--------------9/9|9--9---9
               |10----------|-----------|7----7-7-7-7|7-7-7-7-7-7-7-7/7|7--7---7
               |------------|9----------|------------|-----------------|--------


|Ebadd9/Db   |Bb Bb/F Ab6/Bb|F# Db Ab/Bb Eb Ab6|            %           |
 Best I ever had..........
|[acoustic]                                                             |
|------------|--------------|------------------|------------|-----------|
|------------|--------------|-------10-9-------|------------|-----------|
|9--9-9--9---|--------------|7--7---9--9-------|------------|-----------|
|9--9-9--9--7|9--9-9-----7--|9--7---11-9----7--|------------%-----------|
|---7-------7|9--9-9-----7--|10-9-----------7--|------------|-----------|
|10---10-10-7|7--7-7-----7--|---10----------7--|------------|-----------|
             |[electric 1]                                              |
             |--------------|------------------|------------|-----------|
             |--------------|------------------|------------|-----------|
             |-2-4---2-4--2-|4----------7------|2-4---2-4---|2----x--x--|
             |-2-4---2-4--2-|4----4-6/9---9----|2-4---2-4---|2----x--x--|
             |-----2----2---|--2/6-----------2-|----2-----2-|-----------|
             |--------------|------------------|------------|-----------|

I'd gladly lose me to find you
I'd gladly give up all I got
To catch you I'm gonna run and never stop
                                         [electric 1]                |
                                         |---0--|----0-0-0---0---0---|
                                         |---0--|-/5---7-9--10-10\---|
                                         |---1--|--------------------|
                                         |------|--------------------|
                                         |------|--------------------|
                                         |0-----|-------------------0|

I'd pay any price just to win you
Surrender my good life for bad
To find you I'm gonna drown an unsung man
                                         [electric 1]                |
                                         |--0---|0----0--------------|
                                         |--0---|-------3-/5---------|
                                         |--1--2|---/4---------------|
                                         |------|--------------------|
                                         |------|--------------------|
                                         |0-----|--------------------|

I'd call that a bargain, the best I ever had
    Ebadd9/Db
The best I ever... 
|Bb    Bb/F Ab6/Bb|F# Db  Ab/Bb Eb Ab6|Bb  Bb/F Ab6/Bb|F# Db Ab/Bb Eb|
had............
[electric 1]                                                         |
|-----------------|-------------------|--------7------|--------------|
|--7--7--7--7--7--|7-7--7-----7-7-7---|7--7-7--7------|--------------|
|--6^-6^-6^-6^-6--|6-6--4h6p4-6-4-4---|6^-6-4---------|-------2------|
|-----------------|-------------------|-------6-4\2---|5--2---2------|
|-----------------|-------------------|-------------2-|---2----------|
|-----------------|-------------------|---------------|------------0-|

[bridge; acoustic, chords names above incl. for stage versions]
|Eb               Ebmaj7/D            |Ebadd9/Db         
    I sit looking round,  I look at my face in the mirror
[acoustic]                                               
|-------------------------------------|------------------
|----9-------------------9------------|-------7----------
|--9---9---------------9---9----------|----9----9--------
|-9------9---9-------9-------9---9----|--7--------7---7--
|7---------7-------------------7------|-------------7----
|----------------11-------------------|10----------------

                      |Ab6                  |Dbadd9              |
      I know I'm worth nothing       without you         and like 
[acoustic]                                                       |
----------------------|---------------------|--------------------|
--------7-------------|-----7---------7-----|----7----------7----|
----9-----9-----------|----9-9-------9-9----|---9-9--------9-9---|
--7----------7-----7--|---7---7-7---7---7-7-|--7---7-7----7---7-7|
----------------7-----|--------7---------7--|-------7----------7-|
10--------------------|9----------9---------|10---------10-------|
[electric 1]                                                     |
----------------------|---------------------|--------------------|
<10-<9----------------|<5-------------------|----<5/7------------|
----------------------|---------------------|--------------------|
----------------------|---------------------|--------------------|
----------------------|---------------------|--------------------|
----------------------|---------------------|--------------------|

|Eb                     Ebmaj7/D                 |Ebadd9/Db            |
 One and one don't make two    One and one make one             And I'm 
[acoustic]                                                             |
|---------------7--------------------------------|---------------------|
|-------9-------------------------9--------------|----7---------7------|
|----9-----9--------9----------9-----9-----------|--9--9------9--9-----|
|--9----------9-------------9-----------9-----9--|-7----7-7--7----7-7--|
|7-----------------------------------------7-----|-------7---------7---|
|-----------------------11-----------------------|10--------10---------|
[electric 1]                                                           |
|------------------------------------------------|---------------------|
|------------------------------------------------|----------<10----<9--|
|------------------------------------------------|---------------------|
|------------------------------------------------|---------------------|
|------------------------------------------------|---------------------|
|------------------------------------------------|---------------------|

|Ab6                              |Dbadd9                            |
 Looking for                  that free ride to me, I'm looking for...
[acoustic]                                                           |
|---------------------------------|----------------------------------|
|------7---------------7----------|------7----------------7----------|
|----9---9-----------9---9--------|----9---9------------9---9--------|
|--7-------7---7---7-------7---7--|--7-------7---7----7-------7---7--|
|------------7---------------7----|------------7----------------7----|
|9---------------9----------------|10---------------10---------------|
[electric 1]                                                         |
|---------------------------------|----------------------------------|
|-<14-----------------------------|----------------------------------|
|---------------------------------|----------------------------------|
|---------------------------------|----------------------------------|
|---------------------------------|----------------------------------|
|---------------------------------|----------------------------------|

|Fsus4     |F          |Fsus4         |Bb         |
 you.....  
|[acoustic]                                       |
|7------7---|------------|7-------7-----|7-----7--|
|7------7---|------------|7-------7-----|7-----7--|
|11-----11--|11-----11---|11------11---7|8-----8--|
|11-----11--|11-----11---|11------11---7|9-----9--|
|9--9-9-9---|9--9-9-9----|9---9-9-9----7|9-9-9-9--|
|-----------|------------|-------------7|7---7-7--|

|Bb7sus4    |           |Bb7        |           |
|[acoustic]                                     |
|7-----7----|7-----7----|7-----7----|7-----7----|
|7-----7----|7-----7----|7-----7----|7-----7----|
|9-----9----|9-----9----|8-----8----|8-----8----|
|7-----7----|7-----7----|7-----7----|7-----7----|
|9-9---9-9--|9-9---9-9--|9-9---9-9--|9-9---9-9--|
|7-7-7-7-7-7|7-7-7-7-7-7|7-7-7-7-7-7|7-7-7-7-7-7|
[electric]                                      |
|------2----|-----2-----|---2-------|---2-------|
|-----5-5---|----5-5----|----4------|-----4-----|
|--2-----2-2|--2----2-2-|-----2-2-2-|------2-2--|
|4--------4-|4-------4--|4----------|4------4---|
|-----------|-----------|-----------|-----------|
|-----------|-----------|-----------|-----------|

|Bb7sus4 |          |Bb7     |         |Bb7sus4 |         |Bb7     |        |
[synth riff arr. for guitar]                                                |
g|6-/13---|----11-9-|11-8----|-----8-9-|6-/13---|-----11-9|/11-----|--------|
[electric 1]                                                                |
 |---2----|---2-----|---2----|---2-----|---5----|---4-----|---2----|---2----|
 |----5---|----5----|--4-4---|--4-4----|----2---|--2-2----|--4-4---|----4---|
 |-----2-2|-2---2-2-|-2---2-2|-2---2-2-|-----2-2|-2---2-2-|-2---2-2|-----2-2|
 |4-----4-|4-----4--|4-----4-|4-----4--|4-----4-|4-----4--|4-----4-|4-----4-|
 |--------|---------|--------|---------|--------|---------|--------|--------|
 |--------|---------|--------|---------|--------|---------|--------|--------|

 |Bb7sus4 |         |Bb7     |        |Bb7sus4 |         |Bb             |
[synth]                                                                  |
g|6-/13---|----11-9-|11-8----|----8-9-|6-/13---|-----11-9|/16---|--------|
[electric 1]                                                             |
 |---2----|---2-----|---2----|--2-----|---2----|---4-----|------|--------|
 |--5-5---|--5-5----|--4-4---|---4----|----5---|--2-2----|------|--------|
 |-----2-2|-2---2-2-|-2---2-2|----2-2-|-----2-2|-----2-2-|------|--------|
 |4-----4-|4-----4--|4-----4-|-----4--|4-----4-|------4--|x-----|--------|
 |--------|---------|--------|--------|--------|---------|------|--------|
 |--------|---------|--------|--------|--------|---------|------|--------|

I'd gladly lose me to find you
I'd gladly give up all I got
To catch you I'm gonna run and never stop
                                      [electric 1]                    |
                                      |---0-------|12-----------------|
                                      |---0----12-|12-------9---9\----|
                                      |--------11^|--11\--9-9-7-9\----|
                                      |-----------|-------------------|
                                      |-----------|-------------------|
                                      |-0---------|------------------0|

I'll pay any price just to win you
Surrender my good life for bad
To find you I'm gonna drown an unsung man
                                      [electric 1]              |
                                      |----0---0-0-|----0-----0-|
                                      |-----/5-3-2-|-/5--\3-2---|
                                      |------------|--------2---|
                                      |------------|------------|
                                      |-2----------|------------|
                                      |-0----------|-----------0|

I call that a bargain, the best I ever had

|Eb5    |      Eb5|Eb5        |                         |                |
(had...)                              
[acoustic]                                                               |
|Eb     |         |Eb         |Eb Ebadd9/Db Eb Ebadd9/Db|Eb Ebadd9/Db  Eb|
|-------|---------|-----------|-------------------------|----------------|
|-------|---------|9----------|-------------------------|9---------------|
|9------|------9/9|9----------|----------------9-7--9-7-|9--9-7--9-7--9/9|
|9------|------9/9|9----------|----------------9-7--9-7-|9--9-7--9-7--9/9|
|7--7-7-|7-7-7-7/7|7-7-7-7-7-7|7--7---7---7-7--7----7---|7--7----7----7/7|
|-------|---------|-----------|------------------10---10|-----10---10----|
[electric 1]                                                             |
|-------|--------0|-----------|-------------------------|----------------|
|-------|---------|0----------|-------------------------|----------------|
|-------|---------|-4---------|---------------<---------|-------<--------|
|-------|---------|--2--------|-------------------------|----------------|
|-------|---------|---2-------|-------------------------|----------------|
|0------|---------|-----------|-------------------------|----------------|
               [rake down]                     [vol pedal up for feedback]

|                   Eb7 Eb7|Eb            |           |
                                       The best I ever... 
[acoustic]                                            |
|Eb Ebadd9/Db  Eb Ebadd9/Db|Ebadd9/Db     |           |
|--------------------------|--------------|-----------|
|9-9------9-9-7-9-7--------|7-------------|-----------|
|9-9------9-9-7-9-7--------|7-------------|-----------|
|9-9------9-9-7-9-7--------|7-------------|-----------|
|7-7-----------------------|--------------|-----------|
|--------------------------|10------------|-----------|
[electric 1]                                          |
|--------------------------|0-------------|-----------|
|--------------------------|0-------------|-----------|
|----------<---------------|4-------------|-----------|
|-----------------------2/2|2-------------|-----------|
|-----------------------2/2|2-------------|-----------|
|-----------------------0/0|0-------------|-----------|

|Bb Bb/F Ab6/Bb|F# Db  Ab/Bb Eb  Ab6|Bb  Bb/F  Ab6/Bb|F# Db Ab/Bb Eb Ab6|
 had.................
[acoustic, repeat verse pattern]
[electric 1]                                                            |
|------7-----7-|----7---------------|----------------|------------------|
|---7--7--7--7-|-7--7--7---------4--|-4--4---4---4-2-|------------------|
|---6^----6^---|-6^----6^\---4---4--|-4--4---4---4-2-|-4----------------|
|--------------|---------------6----|6--6---6---6--2-|------------------|
|--------------|--------------------|----------------|------2-----0-----|
|--------------|--------------------|----------------|---------2--------|

|Bb   Bb/F       Ab6/Bb|F# Db Ab/Bb Eb Ab6|Bb Bb/F Ab6/Bb|F# Db Ab/Bb Eb|
[electric 1]                                                            |
|----------------------|--------------7-7-|----------7\--|--------------|
|----------------------|--------7-----7-7-|-7-7--7-7-7\--|--------------|
|--------------7^------|-----7^-7---------|-7-8--7-8-----|----4-2~------|
|--------4-6/9---9-9/9-|9/9/9--9-----9----|9----9--------|----4-2~------|
|2-2--2/6--------------|------------------|-------------0|22------------|
|----------------------|------------------|--------------|--------------|

[repeat intro pattern]
|Bb7sus4 |    |Bb7   |    |Bb7sus4  |     |Bb7   |     |

[repeat post-bridge synth arr. for guitar pattern]

 |Bb7sus4 |         |Bb7     |         |Bb7sus4 |         |Bb7    |        |
[synth riff arr. for guitar]                                               |
g|6-/13---|----11-9-|11-8----|-----8-9-|6-/13---|-----11-9|/11----|--------|
[electric 1]                                                               |
 |--------|---------|--------|---------|--------|---------|-------|--------|
 |--------|---------|--------|---------|--------|---------|-------|--------|
 |--------|---------|--------|---------|--------|---------|-------|--------|
 |--------|---------|<9------|---------|-<11----|---------|-<9*---|--------|
 |--------|---------|--------|---------|--------|---------|-------|--------|
 |--------|---------|<7------|---------|-<9-----|---------|-<7*---|--------|
                                                          [*incr volume through solo]
 
 |Bb7sus4 |         |Bb7     |         |Bb7sus4 |         |Bb              |
[synth]                                                                    |
g|6-/13---|----11-9-|11-8----|-----8-9-|6-/13---|-----11-9|/16----|--------|
[electric 1]                                                               |
 |--------|---------|--------|---------|--------|---------|-------|--------|
 |--------|---------|--------|---------|--------|---------|-------|--------|
 |--------|---------|--------|---------|--------|---------|-------|--------|
 |(9)-----|---------|--------%---------|--------%---------|-------%--------|
 |--------|---------|--------|---------|--------|---------|-------|--------|
 |(7)-----|---------|--------|---------|--------|---------|-------|--------|

 |Bb7sus4          |Bb7  |Bb7sus4             |Bb7   |Bb7sus4              |
[synth]                                                                    |
g|----------------9|/16--|-------------------9|/16---|--------------------9|
[electric 1]                                                               |
 |-----------------|-----|--------------------|------|---------------------|
 |-----------------|-----|--------------------|------|---------------------|
 |-----------------|-----|--------------------|------|---------------------|
 |-----------------%-----|--------------------%------|---------------------|
 |-----------------|-----|--------------------|------|---------------------|
 |-----------------|-----|--------------------|------|---------------------|
[electric 2]                                                               |
 |-----------------|-----|------------------7-|------|---------------------|
 |-----------------|-----|------------------7-|---7--|---------------------|
 |---9---9---------|-----|----8----8----------|------|----9-----9------9---|
 |---9---9-9----9--|-----|----9----9--7-------|------|----9-----9------9---|
 |---9---9-9-9--9--|-----|----9----9--7-------|------|----9-----9------9---|
 |----7-7----7--7--|-----|7------7-------7----|------|--------7------7-----|

 |Bb7             |Bb7sus4          |Bb7                 |
[synth]                                                  |
g|/16-------------|----------------9|/16-----------------|
[electric 1]                                             |
 |----------------|-----------------|--------------------|
 |----------------|-----------------|--------------------|
 |----------------|-----------------|--------------------|
 |----------------%-----------------|--------------------|
 |----------------|-----------------|--------------------|
 |----------------|-----------------|--------------------|
[electric 2]                                             |
 |---7------------|-----------------|--------------------|
 |----------------|0----------------|--------------------|
 |6/8--8---7^~----|-----------------|----------------8---|
 |-------9-----9--|-----------------|----------------9---|
 |----------------|---5^~-------5^--|5^-5^-5^\-----9-9---|
 |--------------7-|--------5-7------|----------7-5-7-----|

 |Bb7sus4         |                 |Bb7           |               |
[synth]                                                            |
g|---------------9|/16--------------|-------------9|/16------------|
[electric 2]                                                       |
 |----------------|-----------------|--------------|---------------|
 |----------------|-----------------|--------------|---------------|
 |----------------|-----------------|--------------|---------------|
 |----------------%-----------------|--------------%---------------|
 |----------------|-----------------|--------------|---------------|
 |----------------|-----------------|--------------|---------------|
[electric 2]                                                       |
 |----------------|-----------------|7---7----7----|--7------------|
 |----------------|-----------------|----7----7----|--7-----7------|
 |---9----9-9-----|9----------------|--------------|---------------|
 |---9----9-9-----|9----------------|--------------|---------------|
 |------------9---|---------9-9-----|------9-------|9----9-----9---|
 |-----7------7---|-----------7-7---|--7-----------|7----7-----7---|

 |Bb7sus4            |                   |Bb    Bb7sus4     |
[synth]                                                     |
g|------------------9|/16----------------|------------------|
[electric 1]                                                |
 |-------------------|-------------------|------------------|
 |-------------------|-------------------|------------------|
 |-------------------|-------------------|------------------|
 |-------------------%-------------------|9-----------------|
 |-------------------|-------------------|------------------|
 |-------------------|-------------------|7-----------------|
[electric 2]                                                |
 |-------------------|-------------------|------------------|
 |--9------9---------|-------------------|------------------|
 |--9------9---------|-------------------|------------------|
 |--9------9---------|-------------------|9-----------------|
 |-----9-9---9-9--5^-|------7^-7^-5^-----|9-----------------|
 |7----7-7---7-7-----|7-5-7---------7-7--|7-----------------|

|Bb7      | Bb7   |Bb7sus4 |         |Bb7     |         |
[electric 1]                                            |
|---------|-------|---2----|---2-----|---2----|---2-----|
|---------|-------|--5-5---|--5-5----|--4-4---|--4-4----|
|---------|-------|-2---2-2|-2---2-2-|-2---2-2|-2---2-2-|
|---------|-------|4-----4-|4-----4--|4-----4-|4-----4--|
|---------|-------|--------|---------|--------|---------|
|---------|-------|--------|---------|--------|---------|
[electric 2]                                            |
|---------|-------|--------|---------|--------|---------|
|---------|-------|--------|---------|<7---<7-|<12--<p9-|
|---------|-------|--------|---------|--------|---------|
|---------|-------|--------|---------|--------|---------|
|---------|-------|--------|---------|--------|---------|
|---------|-------|--------|---------|--------|---------|

|Bb7sus4 |         |B7     
[electric 1]               
|---5----|---5-----|-------
|--2-2---|--2-2----|4------
|-2---2-2|-2---2-2-|2------
|4-----4-|4-----4--|4------
|--------|---------|-------
|--------|---------|-------
[electric 2]               
|--------|---------|-------
|<14-----|<16<17<19|<16----
|--------|---------|-------
|--------|---------|-------
|--------|---------|-------
|--------|---------|-------

=============
litgo@aol.com

#----------------------------------PLEASE NOTE---------------------------------#
#This file is the author's own work and represents their interpretation of the #
#song. You may only use this file for private study, scholarship, or research. #
#------------------------------------------------------------------------------#

Disclaimer

A note on the content here:

The files archived on this site are the respective transcriber’s own work and represent their interpretations of the songs. You may only use these files for private study, scholarship or research. more on use of files >>

Section navigation

Tablature Section

Site info Navigation

Whotabs is not affiliated with The Who, its record company or management.