Whotabs – The Definitive Online Tablature and Gear Resource for The Who since 1997

Return to Whotabs

Can’t You See I’m Easy – guitar tab

Can't You See I'm Easy | guitar tab
By Pete Townshend, 1972
Unreleased

#----------------------------------PLEASE NOTE---------------------------------#
#This file is the author's own work and represents their interpretation of the #
#song. You may only use this file for private study, scholarship, or research. #
#------------------------------------------------------------------------------#

==============                                                        
transcribed by                             Whotabs                    
litgo@aol.com          1999-12-24          www.thewho.net/whotabs     
==============                                                        

[Note: patterns are approximate]

A7sus4/E     002030  (Em7sus4)
A            x02220
D            xx0232
F#m/C#       244222
G            3x0033
Asus4        x02230

[intro]
|A7sus4/E |A     |A7sus4/E |A     |A7sus4/E
|---------|------|---------|------|---
|---------|------|---------|------|---
|---------|------|---------|------|---
|---------|------|---------|------|---
|--------2|0-----|--------2|0-----|---
|0----0---|------|0----0---|------|0--

[verse]
|A7sus4/E               |A
   Why can't you see I'm easy?
Just take what you need
Why can't you see I'm easy?
Just leave enough for me

[chorus]
       |D      |F#m/C#
I don't care anymore
      |G             |Asus4  |    |A    |     |
I just want an end to war

Why can't you see I'm easy?
There's so very little left
Why can't you see I'm easy?
I need a little rest

I won't fight every gain
I just want you in my brain

[interlude]
|A7sus4/E|A      |A7sus4/E|A    |A7sus4/E|A       |A7sus4/E|A       |
|--------|-------|--------|-----|--------|--------|--------|--------|
|--------|-------|--------|-----|--------|--------|--------|--------|
|--------|-------|--------|-----|--------|--------|--------|--------|
|--------|-------|--------|-----|--------|--------|--------|-------2|
|-------2|0------|-------2|4----|-------2|0-------|-------2|4----4--|
|0----0--|---2-3-|0---0---|-----|0----0--|-----2-3|0---3---|--------|

|D      |F#m/C#   |G       |Asus4   |Asus4    |A        |A       |   
|-------|---------|--------|--------|----------|--------|--------|---
|-------|---------|--------|--------|----------|--------|--------|---
|-------|---------|--------|--------|----------|--------|--------|---
|4------|-------4h|5-4-2-0-|4p2-----|4p2--0h2h0|--------|--------|---
|-------|4--------|--------|--------|----------|4-------|--------|---
|-------|---------|--------|--------|----------|--------|----3p2-|0--

Why can't you see I'm easy?
Got no axe to grind
Why can't you see I'm easy?
Even if I ain't your kind

I can't say what went wrong
I was right in every song
I wasn't right, ooh

Why can't you see I'm easy?
Why can't you see?
Why can't you see I'm easy?
I'm easy
Why can't you see I'm easy?
Why can't you see?
Why can't you see I'm easy?

=============
litgo@aol.com

#----------------------------------PLEASE NOTE---------------------------------#
#This file is the author's own work and represents their interpretation of the #
#song. You may only use this file for private study, scholarship, or research. #
#------------------------------------------------------------------------------#

Disclaimer

A note on the content here:

The files archived on this site are the respective transcriber’s own work and represent their interpretations of the songs. You may only use these files for private study, scholarship or research. more on use of files >>

Section navigation

Tablature Section

Site info Navigation

Whotabs is not affiliated with The Who, its record company or management.