Whotabs – The Definitive Online Tablature and Gear Resource for The Who since 1997

Return to Whotabs

Coke 2 – guitar tab

Coke 2 | guitar tab
By The Who, 1967
>Appears on The Who Sell Out (reissue version), 1995
Written by The Who (c)1967

#----------------------------------PLEASE NOTE---------------------------------#
#This file is the author's own work and represents their interpretation of the #
#song. You may only use this file for private study, scholarship, or research. #
#------------------------------------------------------------------------------#

Previous transcription by Andy Dennis
==============                                                        
transcribed by                             Whotabs                    
litgo@aol.com          2001-08-15          www.thewho.net/whotabs     
==============                                                        

tune down whole step (D G C F A D)

|---------|-----------------|------------|--------------|
|---------|-----------------|------------|--------------|
|--2------|-----------------|------------|--------------|
|--2------|------------0-2-2|------------|---------0-2-2|
|--0---0--|---------0h2-----|0-----------|------0h2-----|
|--------3|-------3---------|-----3^(4)-3|~---3---------|

|------------|--------------|------------|--------------|
|------------|--------------|------------|--------------|
|--2---------|--------------|--2---------|--------------|
|--2---------|---------0-2-2|--2---------|--------------|
|0-0---------|------0h2-----|0-0---------|--------------|
|-----3^(4)-3|~---3---------|-----3^(4)-3|~------------0|

 Coke after Coke after coke after Coca Cola
|---------------------|---------------------|
|---------------------|---------------------|
|---------------------|---------------------|
|2----0-----2----0----|2----0-----2-0----0--|
|-------2----------2--|-------2--------2----|
|---------------------|---------------------|

 Coke after Coke after coke after Coca Cola
|---------------------|---------------------|
|---------------------|---------------------|
|---------------------|-----2^(4)~~~~-----0-|
|2----0-----2----0----|2--------------------|
|-------2----------2--|---------------------|
|---------------------|---------------------|

|-0----------|-------------|------------|------------|-------------|-----|
|------------|-------------|------------|--3^---3^---|-------------|-----|
|--2---------|--4^(6)-4p2p0|--2---------|--3^-0-3^-0-|--2----------|-----|
|--2---------|-------------|--2---------|------------|--2----------|----x|
|0-0---------|-------------|0-0---------|------------|0-0----------|----x|
|-----3^(4)-3|~------------|-----3^(4)-3|~-----------|-----3^(4)--3|~----|

 Coke after Coke after coke after Coca Cola
|---------------------|---------------------|
|---------------------|---------------------|
|---------------------|---------------------|
|---------------------|---------------------|
|7----5-----7----5----|7----5-----7-5----5--|
|-------7----------7--|-------7--------7----|

 Coke after Coke after coke after Coca Cola
|---------------------|--------------------------|
|---------------------|--------------------------|
|---------------------|----------------------2-2-|
|---------------------|----------------------2-2-|
|7----5-----7----5----|7---------------------0-0-|
|-------7----------7--|----(0)-------------------|
                         [fuzz on]

|---|--------------|------------|-------------------|---------------------|
|---|--------------|------------|-------------------|---------------------|
|2--|--------------|5^~---------|----------4^(6)\4^\|4^\^~~~~\4p2-2-4-2~--|
|2--|------------7-|---7-----10^|\^\^\~-------------|------------4--------|
|0--|--------------|------------|-------------------|---------------------|
|---|-0-h3/5-/7/8--|------------|-------------------|---------------------|

|---------------------|----------------------|--------------|
|---------------------|----------------------|--------------|
|---------------------|--------------4^\^\~--|6-7^(9)~\^~\--|
|---2-4~~~~---4p2-0---|-------2h4^~----------|--------------|
|--4-------------4----|0.................----|--------------|
|---------------------|----------------------|--------------|

Coke after Coke after coke after Coca Cola
|---------------------|-----------------------------|
|---------------------|-----------------------------|
|9--------------------|-----------------------------|
|---------------------|-----------------------------|
|7----5-----7----5----|7----5-----7-5----5----------|
|-------7----------7--|-------7--------7------------|

 Coke after Coke after coke after Coca Cola
|---------------------|--------------------|-------
|---------------------|--------------------|-------
|---------------------|--------------------|2------
|---------------------|--------------------|2------
|7----5-----7----5----|7----5-----7-5----x-|0------
|-------7----------7--|-------7--------7-x-|-------

=============
litgo@aol.com

#----------------------------------PLEASE NOTE---------------------------------#
#This file is the author's own work and represents their interpretation of the #
#song. You may only use this file for private study, scholarship, or research. #
#------------------------------------------------------------------------------#

Disclaimer

A note on the content here:

The files archived on this site are the respective transcriber’s own work and represent their interpretations of the songs. You may only use these files for private study, scholarship or research. more on use of files >>

Section navigation

Tablature Section

Site info Navigation

Whotabs is not affiliated with The Who, its record company or management.