Whotabs – The Definitive Online Tablature and Gear Resource for The Who since 1997

Return to Whotabs

Drowned – guitar tab

Drowned | guitar tab
By The Who 
>From Quadrophenia, 1973
Written by Pete Townshend (c)1973 Fabulous Music Ltd. 

#----------------------------------PLEASE NOTE---------------------------------#
#This file is the author's own work and represents their interpretation of the #
#song. You may only use this file for private study, scholarship, or research. #
#------------------------------------------------------------------------------#

==============                                                        
transcribed by                             Whotabs                    
litgo@aol.com        2002-01-27            www.thewho.net/whotabs     
==============                                                        

Arranged for three guitars (plus additional instr.):
Piano for guitar
Guitar 1: lead guitar (right ch., remaster)
Guitar 2: rhythm guitar (left ch., remaster)
Guitar 3: overdubbed lead guitar (center ch., remaster)
Horns for guitar

All guitars: Capo on 5th

C            (8)x5558      C/6E          x75585
F             xx7568       Gsus4/F       x85566
C7(no3rd)     xx8588       D             x57775 and x577 10 10 
Gsus2         xx5785       G/D           x59785
Gsus2/F       x85785       D7            x5 10 7 10 5
A             5779(5)(5)   D/A           5577(7)(5)
G             xx5 12 12 10 F/G           xx5 10 10 8
Em/G          xx5987       F/Gii         xx5568


[intro - piano arr for gtr; main riff]
    ||:C           F/C       |  C7(no3)    F/C      :||C F|C7   F/C        |
    ||-----8-----------8-----|------8---------8------||---|----------------|
    ||---5---5---(h6)6---6---|----8---8-----6---6----||---|----------------|
    ||.--------5-----------5-|----------5---------5-.||-%-|-----%----------|
    ||.5---------5h7---------|7/8----------7--------.||---|----------------|
    ||-----------------------|-----------------------||---|----------------|
    ||-----------------------|-----------------------||---|----------------|
    ||[guitar 1]             |                       ||   |                |
-8/8||-8---------------------|-----------------------||---|-x/x/x/x--8--5--|
-8/8||-8---------------------|-----------------------||---|-x/x/x/x--8--6--|
-5/5||-5---------------------|-----------------------||---|-x/x/x/x--5--5--|
-5/5||-5---------------------|-----------------------||---|-x/x/x/x--5--7--|
----||-----------------------|-----------------------||---|----------------|
----||-----------------------|-----------------------||---|----------------|
    ||[guitar 2]                                     ||                    |
----||-----------------------|-----------------------||---|-------------8/8|
----||-----------------------|-----------------------||---|-------------8/8|
----||-----------------------|-----------------------||---|-------------5/5|
----||-----------------------|-----------------------||---|-------------5/5|
----||-----------------------|-----------------------||---|----------------|
----||-----------------------|-----------------------||---|----------------|

|C        F/C |C7(no3)       F/C        |
|[guitar 1]                             |
|8------------|-------------------------|
|8------------|10^\-8---8---------------|
|5------------|10^\-8---8^---5--5-------|
|5------------|-------10-10--10/10-10/10|
|-------------|-------------------------|
|-------------|-------------------------|
|[guitar 2]                             |
|8------8/8/8-|8--8------------------8/8|
|8------6/6/6-|8--8---------6--6-----8/8|
|5------5/5/5-|5--5---------5--5-----5/8|
|5------7/7/7-|8--8---------7--7-----5/5|
|-------------|-------------------------|
|8------------|-------------------------|

|C                    F/C         |C7       F/C   |
                                           There are 
|[guitar 1]                                       |
|---------------------------------|---------------|
|---------------------------------|---------------|
|---------------------------------|8^-------------|
|10/10-10/10-10/10-10/10-10/10-10-|--10-10--------|
|---------------------------------|---------x\----|
|---------------------------------|---------x\----|
|[guitar 2]                       |               |
|8--------------------8/8/8-------|8-8------------|
|8--------------------6/6/6-------|8-8------6--6--|
|5--------------------5/5/5-------|5-5------5--5--|
|5--------------------7/7/7-------|8-8------7--7--|
|---------------------------------|---------------|
|8--------------------------------|---------------|

[verse; main rhythm figure for verse]
|C           F/C        |C7(no3)       F/C      |
 Men high up there fishing              (Haven't)
|[guitar 1]                                      
|-----8----8/8-----8----|------8-----8/8----8---|
|8----8----8/8-----8--x-|8-----8-----8/8--x-8-x-|
|5----5----5/5-----5--x-|5-----5-----5/5--x-5-x-|
|5----5----5/5-----5--x-|5-----5-----5/5--x-5-x-|
|-----------------------|-----------------------|
|-----------------------|-----------------------|
[guitar 2]                                      |
|----8-----------8------|------8-----------8----|
|--5---5---(h6)6---6----|----8---8---(h6)6---6--|
|--------5-----------5--|----------5-----------5|
|5---------5h7----------|7/8---------5h7--------|
|-----------------------|-----------------------|
|-----------------------|-----------------------|

     ||:C           F/C        |C7(no3)       F/C      :||
Haven't seen quite enough of the world                    
     [guitar 1]                                         ||
     ||------8----8/8-----8----|------8-----8/8----8----||
     ||-8----8----8/8---x-8--x-|8-----8-----8/8--x-8-x--||
     ||.5----5----5/5---x-5--x-|5-----5-----5/5--x-5-x-.||
     ||.5----5----5/5---x-5--x-|5-----5-----5/5--x-5-x-.||
     ||------------------------|------------------------||
     ||------------------------|------------------------||
     [guitar 2]                                         ||
     ||-----8-----------8------|------8----------8------||
     ||---5---5---(h6)6---6----|----8---8--(h6)6---6----||
     ||.--------5-----------5--|----------5----------5-.||
     ||.5---------5h7----------|7/8--------5h7---------.||
     ||------------------------|------------------------||
     ||------------------------|------------------------||


      |C            F/C       |C7(no3) F/C     
Ooh, I ain't seen a sign of my hero
      |       %               |         %      

       |C           F/C        |C7(no3)       F/C      |
And I'm still diving down for pearls                Ooh,
       [guitar 1]                                      |
       |----------8/8-----8----|------8----------------|
       |----------8/8-----8--x-|8-----8----------------|
       |7~--5-----5/5-----5--x-|5-----5----------------|
       |----------5/5-----5--x-|5-----5----------------|
       |-----------------------|-----------------------|
       |-----------------------|-----------------------|
       [guitar 2]                                      |
       |----8-----------8------|------8----------8-----|
       |--5---5---(h6)6---6----|----8---8--(h6)6---6---|
       |--------5-----------5--|----------5----------5-|
       |5---------5h7----------|7/8--------5h7---------|
       |-----------------------|-----------------------|
       |-----------------------|-----------------------|

[chorus]
|G           F/G     |Em/G  F/Gii |C          F         | C7no3     F        |
 Let me flow into the ocean, Yeah, Let me get back to the sea                 
[guitar 1]                                                                   |
|--------------------|------------|---------------------|--------------------|
|8-------------------|-----8---8--|---5-----------------|--------------------|
|7-------------------|-----7---7--|---5-----------------|8^-8p7p5-7-5h7p5---7|
|5-------------------|-----5-5-5-5|---5-----------------|-----------------5-5|
|5-------------------|-------5---5|---------------------|-------------------5|
|--------------------|------------|7h8------------------|-----------------8--|
|[guitar 2]                                                                  |
|10--10------8--8----|7-7---8-8---|----8-----------8----|---8-----------8----|
|12--12------10-10---|8-8---6-6---|--5--5----h6--6---6--|--8-5---------6-6---|
|12--12------10-10---|9-9---5-5---|-------5-----------5-|-----5-----------5--|
|5---5-------5--5----|5-5---5-5---|5---------h7--------7|/8---------5h7------|
|--------------------|------------|---------------------|--------------------|
|--------------------|------------|---------------------|--------------------|

|G         F/G       |Em/G      F/Gii        |
 Let me be stormy and let me be calm, Let the
|[guitar 1]                                  |
|--------------------|-----------------------|
|8-------------------|----------8/10-8-------|
|7-------------------|----------7----5--5----|
|5-------------------|----------5----5--5----|
|5-------------------|-----------------------|
|--------------------|----------------------8|
|[guitar 2]                                  |
|10--10----8---8-----|-7---7----8------------|
|12--12----10--10----|-8---8----6------------|
|12--12----10--10----|-9---9----5------------|
|5---5-----5---5-----|-5---5----5------------|
|--------------------|-----------------------|
|--------------------|-----------------------|

|C          |F      |C7(no3) |F        ||
 tide in and set me free
|[guitar 1]                            ||
|8----------|8-----8|8\/-----|------8/8||
|5----------|6-----8|8\/--6/6|6-----8/8||
|5----------|5-----5|5\/--5/5|5-----5/5||
|5----------|7-----8|8\/--7/7|7-----5/5||
|-----------|-------|--------|---------||
|8----------|-------|--------|---------||
|[guitar 2]                            ||
|8----------|8------|8-------|8--------||
|5----------|6------|8-------|6--------||
|5----------|5------|5-------|5--------||
|5----------|7------|8-------|7--------||
|-----------|-------|--------|---------||
|8----------|-------|--------|---------||

[repeat intro]
|C       F    |C7(no3) F  |C      F     |C7               F                |
|[repeat piano]                                                            |
|[guitar 1]                                                                |
|8------------|-----------|-------------|------8---------------------------|
|8------------|-----------|-------------|10^\p8----------------------------|
|5------------|-----------|-------------|5------5--------------------------|
|5------------|-----------|-------------|--------8h10-----10-----10--------|
|-------------|-----------|-------------|-------------10-----10------------|
|-------------|-----------|-------------|----------------------------------|
|[guitar 2]               |                                                |
|8------------|-----------|-------------|----------------------------------|
|8------------|-----------|-------------|8---------------------------------|
|5------------|-----------|-------------|10^-^10-^10/^10-10/10/10/10-8^--5-|
|5------------|-----------|-------------|----------------------------------|
|-------------|-----------|-------------|----------------------------------|
|-------------|-----------|-------------|----------------------------------|

|C           F         |C7(no3)       F                      |
[piano]                                                       
[guitar 1]                                                    
|----------------------|-------------------------------------|
|-----------/x*--------|-------------------------------------|
|5----------/x---10^\p8|--8------------8~--------------------|
|-----------/x---------|10-10-5-8-10/10--10--10-8-10/10/10-8h|
|----------------------|-------------------------------------|
|----------------------|-------------------------------------|
|          [*scrape left hand upward]                        |
|[guitar 2]                                                  |
|---8-------8/8/8------|8--8---------------------------------|
|---8-------6/6/6------|8--8---------6--6--------------------|
|5--5-------5/5/5------|5--5---------5--5--------------------|
|---5-------7/7/7------|8--8---------7--7--------------------|
|----------------------|-------------------------------------|
|----------------------|-------------------------------------|

|C           F        |C7           F               |
                                                 I'm 
|[guitar 1]                                         |
|---------------------|-----------------------------|
|---------------------|-----------------------------|
|----------8----------|8----------8-----------8-----|
|10---------10-10/x/10|-10-x/10/x--10/10--8-10-10/10|
|---------------------|-----------------10----------|
|----8\---------------|-----------------------------|
|[guitar 2]           |                             |
|8-----------8/8-8/8--|8-8--------------------------|
|8-----------6/6-6/6--|8-8-----------6------6-------|
|5-----------5/5-5/5--|5-5-----------5------5-------|
|5-----------7/7-7/7--|8-8-----------7------7-------|
|---------------------|-----------------------------|
|8--------------------|-----------------------------|

[repeat verse]

||:C           F          |C7(no3)       F       :||
   Flowing under bridges                      Then  
|[guitar 1]                                       ||
||------------------------|8-----------8/8----8---||
||------------------------|8-----------8/8--6-6-6-||
||-5[17*]-----------------|5-------------5--5-x-5-||
||------------------------|5-------------5--7-x-7-||
||------------------------|-----------------------||
||------------------------|-----------------------||
||  [*feedback tone]                              ||
|[guitar 2]                                       ||
||-----8-----------8------|------8----------8-----||
||---5---5---(h6)6---6----|----8---8--(h6)6---6---||
||.--------5-----------5--|----------5----------5.||
||.5---------5h7----------|7/8--------5h7--------.||
||------------------------|-----------------------||
||------------------------|-----------------------||

|C          F      |C7(no3)       F        |
 Flying through the sky                 I'm 
[guitar 1]                                  
|-----8------------|--------8--------------|
|x----8-----x--x-x-|x-8-----8---8/x--x-----|
|x----5-----x--x-x-|x-5-----5---5/x--x-----|
|x----5-----x--x-x-|x-5-----5---5/x--x-----|
|------------------|-----------------------|
|------------------|-----------------------|

|C          F      |C7(no3)       F        |
 Traveling down cold metal           Just a 
[guitar 1]                                  
|-----8------------|--------8--------------|
|x----8-----x---x--|x-------8-----x----x---|
|x----5-----x---x--|x-------5-----x----x---|
|x----5-----x---x--|x-------5-----x----x---|
|------------------|-----------------------|
|------------------|--------8--------------|

|C          F      |C7(no3)       F        |
 Tear in a baby's eye                    Oh,
[guitar 1]                                  
|-----8------------|--------8--------------|
|x----8-----x---x--|x-------8--------------|
|x----5-----x---x--|x-------5--------------|
|x----5-----x---x--|x-------5------------5-|
|------------------|---------------------5-|
|------------------|-----------------------|

[repeat chorus]
   |G           F/G     |Em/G  F/Gii |C          F         | C7no3       F    |
Oh, let me flow into the ocean,   Oh, Let me get back to the sea               
   |[guitar 1]                                                                |
   |5-------------------|---7--------|8--------------------|------------------|
   |8-------------------|---8--------|8--------------------|--10^\-8----------|
   |7-------------------|---7--7-7---|5--------------------|--------10-8p5--5-|
   |5-------------------|---5--5-5---|5--------------------|---------------5-5|
   |5-------------------|---5--5-5---|---------------------|------------------|
   |--------------------|-----------8|---------------------|------------------|
   |[guitar 2]                                                                |
   |10--10------8--8----|7-7---8-----|----8-----------8----|---8-----------8--|
   |12--12------10-10---|8-8---6-6---|--5--5----h6--6---6--|--8-5---------6-6-|
   |12--12------10-10---|9-9---5-5---|-------5-----------5-|-----5------------|
   |5---5-------5--5----|5-5---5-5---|5---------h7--------7|/8---------5h7----|
   |--------------------|------------|---------------------|------------------|
   |--------------------|------------|---------------------|------------------|

|G         F/G       |Em/G      F/Gii        |
 Let me be stormy and let me be calm, Let the 
|[guitar 1]                                  |
|--------------------|-----------------------|
|8--8----------------|------------8/10-------|
|7-------------------|----------------12-5---|
|5-------------------|-----------------------|
|5-------------------|-----------------------|
|--------------------|-----------------------|
|[guitar 2]                                  |
|10--10----8---8-----|-7---7----8------------|
|12--12----10--10----|-8---8----6------------|
|12--12----10--10----|-9---9----5------------|
|5---5-----5---5-----|-5---5----5------------|
|--------------------|-----------------------|
|--------------------|-----------------------|

|C          |F         |C7(no3)      |F        |
 tide in and set me    free              set me 
|[guitar 1]                                    |
|8----------|----------|-------------|---------|
|5----------|----------|-------------|---------|
|5----------|----------|-------------|---------|
|5----------|----------|14*-15*14*12*|10*------|
|-----------|-15*******|15-----------|---/15*--|
|8----------|----------|-------------|---------|
|            [*tremelo picking               ] |
|[guitar 2]                                    |
|8----------|8---------|8------------|8--------|
|5----------|6---------|8------------|6--------|
|5----------|5---------|5------------|5--------|
|5----------|7---------|8------------|7--------|
|-----------|----------|-------------|---------|
|8----------|----------|-------------|---------|

|C                       |F                     |C7(no3)    |F         |
 Free                                                                   
|[guitar 1]                                                            |
|------------------------|----------------------|-----------|----------|
|------------------------|----------------------|-----------|----------|
|------------------------|----------------------|-----------|----------|
|------------------------|----------------------|10---------|----------|
|13h15-13h15-13h15-15-15-|13h15-15-13h15-15-15--|-----------|----------|
|------------------------|----------------------|8----------|----------|
|[guitar 2]                                                            |
|8-----------------------|8---------------------|8----------|8---------|
|5-----------------------|6---------------------|8----------|6---------|
|5-----------------------|5---------------------|5----------|5---------|
|5-----------------------|7---------------------|8----------|7---------|
|------------------------|----------------------|-----------|----------|
|8-----------------------|----------------------|-----------|----------|

[bridge]
|Gsus2       |Gsus2/F                |C6/E             |Gsus2/F                 |
 I am not the actor               and this can't be the scene               But  
|[piano]                                                                        |
|-5---5------|--5---5----------------|--5---5----------|---5---5h75---5---------|
|--8---8--8--|---8---8--8------------|---8----8--8-----|----8-------8-----------|
|---6---6----|----6---6--------------|----5----5-------|-----6------------------|
|5-----------|-----------------------|-----------------|------------------------|
|------------|8----------------------|7----------------|8-----------------------|
|------------|-----------------------|-----------------|------------------------|
|[guitar 1]                                                                     |
|------------|-----------------------|-----------------|------------------------|
|------------|-----------------------|-----------------|------------------------|
|------------|-----------------------|-----------------|------------------------|
|------------|-----------------------|-----------------|------------------------|
|------------|-----------------------|-----------------|------------------------|
|------------|-----------------------|-----------------|------------------------|
|[guitar 2]                                                                     |
|------------|-----------------------|-----------------|------------------------|
|------------|-----------------------|-----------------|------------------------|
|------------|-----------------------|-----------------|------------------------|
|------------|-----------------------|-----------------|------------------------|
|------------|-----------------------|-----------------|------------------------|
|------------|-----------------------|-----------------|------------------------|
|[guitar 3; overdubbed]                                                         |
|------------|--10p8-7h8p7-----------|-----------------|------------------------|
|------------|------------8----------|-----------------|------------------------|
|------------|-------------7-5-------|-----------------|-12/12/12/12/12/12-10-12|
|------------|----------------9-7-5-5|-----------------|------------------------|
|------------|-----------------------|7----------------|------------------------|
|------------|-----------------------|-----------------|------------------------|

|Gsus2           |Gsus2/F            |C6/E        |Gsus4/F |         |
 I am in the wa-ter                as far as I can see                
|[piano]                                                             |
|-5----5---------|--5---5------------|--5---5-----|--------|---------|
|--8----8--8-----|---8---8--8--------|---8----8--8|8-8-8-8-|8-8-8-8--|
|---6----6-------|----6---6----------|----5----5--|7-7-7-7-|7-7-7-7--|
|5---------------|-------------------|------------|5-5-5-5-|5-5-5-5--|
|----------------|8------------------|7-----------|8-8-8-8-|8-8-8-8--|
|----------------|-------------------|------------|--------|---------|
|[guitar 1]                                                |         |
|----------------|--8p7h8p7----------|------------|--------|---------|
|----------------|---------8---------|------------|--------|---------|
|----------------|----------7-5------|------------|--------|------7/7|
|----------------|--------------9-7-5|------------|--------|------7/7|
|----------------|-------------------|------------|--------|------5/5|
|----------------|-------------------|------------|--------|---------|
|[guitar 2]                                                |         |
|----------------|-------------------|--------5---|----5---|----5----|
|----------------|-------------------|-------8-8--|---8-8--|---8-8---|
|----------------|-------------------|------5---5-|--5---5-|--5---5--|
|----------------|-------------------|---(5)-----5|-5-----5|-------5-|
|----------------|-------------------|-(7)--------|8-------|8--------|
|----------------|-------------------|------------|--------|---------|
|[guitar 3]                                                |         |
|----------------|-------------------|/19-20--15--|--------|---------|
|-----------15-17|15------/19--------|----------15|--------|---------|
|12/17\--/17-----|-------------------|------------|--------|---------|
|----------------|-------------------|------------|--------|---------|
|----------------|-------------------|------------|--------|---------|
|----------------|-------------------|------------|--------|---------|

[piano break rhythm pattern]
|D        G/D    |D7     G/D         |
[guitar 1; solo]                     |
|----------------|-------------------|
|----------------|-------------------|
|--7--------5-x-x|--7----x----7---7p5|
|7-7--------7-x-x|--7----x----7---7p5|
|5----------5-x-x|--5----x----5---5--|
|----------------|----------8---8----|
|[guitar 2]                          |
|10-------5---5--|5--5---5---5-------|
|10-----x-8-x-8-x|10-10--8-x-8--10/10|
|7------x-7-x-7-x|7--7---7-x-7---7/7-|
|7------x-9-x-9-x|10-10--9-x-9---7/7-|
|5--------5---5--|5--5---5---5---5/5-|
|----------------|-------------------|

||:D      G/D      |D7         G/D             :||
||[guitar 1]                                    ||
||-10~-------------|-10-----10--------10--------||
||-10~-------------|-10-5-7-10-5-7-5--10-7-5-7-5||
||-7-~----7-7-5-7--|7---5-7----5-7-5-----7-5-7-5||
||-7-~----7-7-5-7--|7---5-7----5-7-5-----7-5-7-5||
||-5-~----5-5------|----------------------------||
||-----------------|----------------------------||
||[guitar 2; basic pattern]                     ||
||-10-10----5---5--|5----5------5---5-----------||
||-10-10--x-8-x-8-x|10---10-----8-x-8-----10/10-||
||.7--7---x-7-x-7-x|7----7------7-x-7------7/7-.||
||.7--7---x-9-x-9-x|10---10-----9-x-9------7/7-.||
||-5--5-----5---5--|5----5------5---5------5/5--||
||-----------------|----------------------------||

|D    G/D     |D7             G/D           |D        G/D      |D7           |
|[guitar 1]                                                                  |
|-------------|--10-----10-----10-----10----|------------------|-------------|
|10---10-5-7-5|7-10-5-7-10-5-7-10-5-7-10-5-7|------------------|-------------|
|7----7--5-7-5|7----5-7----5-7----5-7----5-7|7-7---7----7------|----------7-5|
|7----7--5-7-5|7----5-7----5-7----5-7----5-7|7-7-7-7--7-7-7-7-7|----7--7--7-5|
|5----5-------|-----------------------------|5-5---5----5------|8-8-5--5--5-5|
|-------------|-----------------------------|----8----8---8-8-8|-----8^------|

|D        G/D       |D7       G/D      |D      G/D    |D7                     |
|[guitar 1]                                                                   |
|-------------------|------------------|--------------|-----------------------|
|-------------------|------------------|--------------|-----------------------|
|-7p5-7p5-7p5-7p5-7p|5-7p5-7p5--5------|--------------|-----------------------|
|-------------------|-----------5---5-5|-7p5-7p5-5-5-5|-5---5-----------------|
|5-------5---5---5--|-5-5-5---5-5-8~-8-|5---5---5-5-5-|5-5/5/5/5/5/5/5/5/5/5-5|
|-------------------|------------------|--------------|-----------------------|

|D        G/D       |D7        G/D       |
|[guitar 1]                              |
|-------------------|--------------------|
|-------------------|--------------------|
|-------------------|--------------------|
|-7p5-7p5-7p5-7p5-7p|5-------------------|
|5---5---5---5------|-5-5/5--5/5-5/5-5/5-|
|-------------------|--------------------|

|D          G/D            |D7               G/D            |
|[guitar 1]                                                 |
|--------------------------|--------------------------------|
|--------------------------|--------------------------------|
|--------------------------|--------------------------------|
|7p5-5-------------------7p|5--------7p5--------7p5---------|
|-----8p5-5-8^p5-5-8^p5-5--|-5-8^p5-5---5-8^p5-5---5-8^p5-5-|
|--------------------------|--------------------------------|

|D             G/D             |D7             G/D           |
|[guitar 1]                                                  |
|------------------------------|-----------------------------|
|------------------------------|-----------------------------|
|------------------------------|-----------------------------|
|7p5--------7p5--------7p5-----|---7p5-----------------------|
|---5-8^p5-5---5-8^p5-5---5-8^p|5-5---5-8^p5-5-8^p5-5-8^p5-5-|
|------------------------------|-----------------------------|

|D           G/D        |D7         G/D             |
|[guitar 1]                                         |
|-----------------------|---------------------------|
|-----------------------|---------------------5--5--|
|------------------x---7|---------------7p5-5-9^-9^-|
|----------5-------x----|--------5-7-9^----7--------|
|5--8^-5--5--8^-8^-5----|8^p5-8^--------------------|
|-------8^----------8^--|---------------------------|

[horn interlude                               
||:A                    A|  A            D/A:||
||[horn arr for gtr]                         ||x6
||-----------------------|-------------------||
||-----------------------|-------------------||
||.--------7-5h6p5h6p5*--|------------------.||
||.7-7-5-7--------------7|--7-5-------------.||
||-----------------------|------9--5-7-5-----||
||-5--------------------5|---------------5/5-||
||          *trill the 5/6                   ||
||[horn 2]                                   ||x6
||----------10-8/--------|-------------------||
||10-10-8-10-----------10|-10-8-7----5-------||
||.----------------------|---------7--------.||
||.----------------------|------------------.||
||-----------------------|-------------------||
||-----------------------|-------------------||
||[guitar 1]                                 ||
||-----------------------|-----------5-------||
||----------------------8|----7--5---5-------||
||-9-7~\----------------7|----7--5h6-5h6--5h6||
||---------7------------9|----7--5---5-------||
||---------7-------------|-------------------||
||---------5-------------|-------------------||
||[guitar 2]                                 ||
||-----------------------|-------------------||
||-----------------------|-------------------||
||---------7-5h6p5h6p5*-7|--7-5--------------||
||-7-7-5-7-7-5----------7|--7-5----5-7-------||
||-7-7-5-7---------------|------9--5-7-------||
||-----------------------|---------------8^-5||
             [*trill]

|A                     |                 |
|[guitar 1]                              |
|----------------------|-----------------|
|----------------------|-----------------|
|----------------------|---------x---5h6-|
|7~-------------------7|---------x-----7-|
|---------------------7|---------x------7|
|---------------------5|----------------5|
|[guitar 2]                              |
|----------------------|-----------------|
|----------------------|-----------------|
|--------7-5h6p5h6p5*-7|--7-5------------|
|7-7-5-7-7-5----------7|--7-5----5-7-----|
|7-7-5-7---------------|------9--5-7-----|
|----------------------|-----------------|
           [*trill]

|A                     |                      |
|[guitar 1]                                   |
|5--------------------5|----------------------|
|5--------------------5|----------------------|
|---------------------9|5h6------x--6p5h6-----|
|---------------------7|---------x--7p5h7-----|
|---------------------7|---------x--7p5h7-----|
|---------------------5|-------------------5-5|
|[guitar 2]                                   |
|----------------------|-------10-10-10-------|
|----------------------|-------10-10-10-------|
|--------7-5h6p5h6p5*-7|--7-5--7--7--7--------|
|7-7-5-7-7-5----------7|--7-5-----------------|
|7-7-5-7---------------|----------------------|
|----------------------|----------------------|
            [*trill]

|A                     |                   |
|[guitar 1]                                |
|5--------------------5|-----------------5-|
|5--------------------5|-------------7---5-|
|9--------------------9|-------------7---5h|
|7--------------------7|-------------7---7-|
|7--------------------7|-----------------5-|
|---------------------5|-----------------5-|
|[guitar 2]                                |
|----------------------|-------------------|
|----------------------|-------------------|
|--------7-5h6p5h6p5*-7|--7-5--------------|
|7-7-5-7-7-5----------7|--7-5----5-7-------|
|7-7-5-7---------------|------9--5-7-------|
|----------------------|-------------------|
           [*trill]

|A                     |               |A                      |           |
|[guitar 1]                                                                |
|-~--------------------|---------------|-----------------------|5----------|
|-~------------------5-|--5---5--------|-----------------------|5----------|
|6~-----------------/14|--12--11~-7p5--|9---------------------9|-----------|
|-~--------------------|---------------|7---------------------7|-----------|
|-~--------------------|---------------|7---------------------7|-----------|
|----------------------|--------------5|----------------------5|-----------|
|[guitar 2]                                                                |
|----------------------|---------------|-----------------------|-----------|
|----------------------|---------------|-----------------------|-----------|
|--------7-5h6p5h6p5*-7|--7-5----------|---------7-5h6p5h6p5*-7|-7-5-------|
|7-7-5-7-7-5----------7|--7-5----5-7---|-7-7-5-7-7-5----------7|-7-5----5-7|
|7-7-5-7---------------|------9--5-7---|-7-7-5-7---------------|-----9--5-7|
|----------------------|---------------|-----------------------|-----------|
           [*trill]

[repeat intro]
||:C           F          |C7(no3)     F          :||
||[repeat piano]                                     
| [guitar 1]                                         
||-8----------------------|------------------------||
||-8----------------------|------------------8/8/8-||
||-5----------------------|------------------------||
||-5----------------------|------------------------||
||------------------------|------------------------||
||-8----------------------|------------------------||
||[guitar 2]              |                        ||
||-----8-----------8------|------8-----------8-----||
||---5---5---(h6)6---6----|----8---8---(h6)6---6---||
||.--------5-----------5--|----------5-----------5.||
||.5---------5h7----------|7/8---------5h7--------.||
||------------------------|------------------------||
||------------------------|------------------------||

|C               F              |C7                  F                      |
                                                                 Ooh, I'm re-
|[guitar 1]                                                                 |
|-------------------------------|-------------------------------------------|
|8/8/8/8/8/8/8/8/8/8/8/8/8/8/8/8|8/8/8/8/10/10/10/10/11/11/11/11/13/13/13/13|
|-------------------------------|-------------------------------------------|
|-------------------------------|-------------------------------------------|
|-------------------------------|-------------------------------------------|
|-------------------------------|-------------------------------------------|
|[guitar 2]                                                                 |
|-------------------------------|-------------------------------------------|
|-------------------------------|-------------------------------------------|
|--------------%----------------|----------------%--------------------------|
|-------------------------------|-------------------------------------------|
|-------------------------------|-------------------------------------------|
|-------------------------------|-------------------------------------------|

[repeat verse]
|C           F         |C7(no3)       F        |
-membering distant memories                  Re-
|[guitar 1]                                     
|------------------15\-|-----------------------|
|13\-------------------|--x-----------x--------|
|----------------------|--x-----------x--------|
|----------------------|--x-----------x--------|
|----------------------|-----------------------|
|----------------------|-----------------------|
|[guitar 2]                                    |
|----8-----------8-----|------8----------8-----|
|--5---5---(h6)6---6---|----8---8--(h6)6---6---|
|--------5-----------5-|----------5----------5-|
|5---------5h7---------|7/8--------5h7---------|
|----------------------|-----------------------|
|----------------------|-----------------------|

|C        F         |C7(no3)  F     |C        F         |C7(no3)      F     |
-calling other names                 Rippling over canyons               And 
[guitar 1]                                                                   
|8------8-8/8----8--|-----8---------|8------8-8/8----8--|-------8-8/8-------|
|8------8-8/8--x-8-x|x----8---x--x--|8------8-8/8--x-8-x|x------8-8/8-x--x--|
|x------5-5/5--x-x-x|x----5---x--x--|x------5-5/5--x-x-x|x------5-5/5-x--x--|
|x------5-5/5--x-x-x|x----5---x--x--|x------5-5/5--x-x-x|x------5-5/5-x--x--|
|-------------------|---------------|-------------------|-------------------|
|-------------------|-----8---------|-------------------|-------8-----------|
[guitar 2]                                                                  |
|         %         |       %       |         %         |        %          |

|C        F         |C7(no3)      F     |
 Boiling in the train                    
[guitar 1]                               
|8------8-8/8----8--|-------8-----------|
|8------8-8/8--x-8-x|x------8-----------|
|x------5-5/5--x-x-x|x------5-------5---|
|x------5-5/5--x-x-x|x------5-------5---|
|-------------------|---------------5---|
|-------------------|-------8-----------|
[guitar 2]                              |
|         %         |          %        |

[repeat chorus]
   |G           F/G     |Em/G     F/Gii   |
Oh, Let me flow into the ocean,        oh, 
   |[guitar 1]                            |
   |--------------------|-----------------|
   |8-----------<12>----|--<12>---8---8---|
   |7-------------<12>--|-<12>----7---7---|
   |5---------------<12>|<12>-----5---5---|
   |5-------------------|---------5---5---|
   |--------------------|-----------8---8-|
   |[guitar 2]                             
   |10--10------8--8----|7---7----8---8---|
   |12--12------10-10---|8---8----6---6---|
   |12--12------10-10---|9---9----5---5---|
   |5---5-------5--5----|5---5----5---5---|
   |--------------------|-----------------|
   |--------------------|-----------------|

|C          F          | C7no3 F       |G         F/G       |Em/G      F/Gii 
 Let me get back to the sea             Let me be stormy and let me be calm  
|[guitar 1]                                                                  
|----------------------|--8------------|7\/----------------7|7---------------
|----------------------|--8---------8--|8\/~---------------8|8---------------
|7^^---\5---7^\5-5h7p5-|5-5---------5-5|7\/~---------------7|7---------------
|--------7-------------|--5---------5-5|5\/~---------------5|5---------------
|----------------------|--------------5|5\/~---------------5|5---------------
|----------------------|---------------|--------------------|----------------
|[^^=bend whole note]                  |                                     
|[guitar 2]                            |                                     
|8---------------8-x-8-|-8-8--------8--|10--10----8---8-----|-7---7----8-----
|5-------------6-6-x-6-|-8-8-------8---|12--12----10--10----|-8---8----6-----
|5-------------5-5-x-5-|-5-5------5----|12--12----10--10----|-9---9----5-----
|5-------------7-------|-8-8-----8-----|5---5-----5---5-----|-5---5----5-----
|----------------------|---------------|--------------------|----------------
|----------------------|---------------|--------------------|----------------
                                [rake]

       |C          |F      |C7(no3) |F        |C           |
Let the tide in and set me free         set me free         
[guitar 1]                                                 |
----8/8|8-------8/8|8---8/8|8--8-8/8|8-----8/8|8\/~------13|
----8/8|8-------6/6|6---8/8|8----6/6|6-----8/8|8\/~---13/13|
-5--5/5|5-------5/5|5---5/5|5----5/5|5-----5/5|5\/~---10/10|
----5/5|5-------7/7|7---8/8|8----7/7|7-----8/8|8\/~---10/10|
-------|-----------|-------|--------|---------|------------|
-------|8----------|-------|--------|---------|------------|
[guitar 2]                                                 |
-------|8----------|8------|8-------|8--------|8-----------|
-------|5----------|6------|8-------|6--------|5-----------|
-------|5----------|5------|5-------|5--------|5-----------|
-------|5----------|7------|8-------|7--------|5-----------|
-------|-----------|-------|--------|---------|------------|
-------|8----------|-------|--------|---------|8-----------|

|F           |C7(no3)   |F          |C             |F             |
       set me free           I wanna drown                 in cold 
|[guitar 1]                                                       |
|------------|----------|-----------|--------------|--------------|
|13-----13/13|13--------|<17>-------|--------------|--------------|
|10-----12/12|12----<17>|----[17*]--|--<17---<12--<|7^\-<5--------|
|10-----14/14|14--------|-----------|--------------|--------------|
|------------|----------|-----------|--------------|--------------|
|------------|----------|-----------|--------------|--------------|
|                            [*fbk tone][vol. swells; w/pedal]    |
|[guitar 2]                                                       |
|8-----------|8---------|8----------|8-------------|8-------------|
|6-----------|8---------|6----------|5-------------|6-------------|
|5-----------|5---------|5----------|5-------------|5-------------|
|7-----------|8---------|7----------|5-------------|7-------------|
|------------|----------|-----------|--------------|--------------|
|------------|----------|-----------|--------------|--------------|

|C       F/C   |C7     F/C    |C    F/C   |C7              F/C               |
 Water                                    Hmmmm...                            
[repeat piano intro]                                                         |
|[guitar 1]                                                                  |
|--------------|--------------|-----------|----------------------------------|
|--------------|--------------|-----------|----------------------------------|
|--<17---<12--<|7^\-<5-<5-----|5/5/5/5/5/5/5/5/5/5/5/5/5/5/5/5/5/5/5/5/5/5---|
|--------------|--------------|-----------|----------------------------------|
|--------------|--------------|-----------|----------------------------------|
|--------------|--------------|-----------|----------------------------------|
|[guitar 2]                                                                  |
|8-------------|--------------|-----------|----------------------------------|
|5-------------|--------------|-----------|10^/^10-^10/^10\10/10-10/10-10-8--|
|5-------------|--------------|-----------|--------------------------------7^|
|5-------------|--------------|-----------|----------------------------------|
|--------------|--------------|-----------|----------------------------------|
|--------------|--------------|-----------|----------------------------------|

|C             F/C        |C7           F/C        |
|[guitar 1]                                        |
|---8/8/x/8--x-8/x/8/8-x/x|--------8--x---8--/8-x/x|
|---8/8/x/8--x-8/x/8/8-x/x|x-8/8/8-8--x-8/8/8/8-x/x|
|---5/5/x/5--x-5/x/5/5-x/x|x-5/5/5-5--x-5/5/5/5-x/x|
|---5/5/x/5--x-5/x/5/5-x/x|x-5/5/5-5--x-5/5/5/5-x/x|
|-------------------------|------------------------|
|-------------------------|------------------------|
|[guitar 2]                                        |
|--------8-----8/8---8/8--|8-------8------8---8/8--|
|--------8-x-x-5/6---5/6p5|8-------8------6---5/6--|
|--------5-x-x-5/5---5/5--|5-------5----5-5---5/5--|
|10------5-x-x-5/7---5/7p5|8-------8----7-7---5/7--|
|-------------------------|------------------------|
|--------8----------------|------------------------|

|C          F/C        |C7         F/C        |
|[guitar 1]                                   |
|------8------8---8----|------8------8---8----|
|x-8/x/8-xx-x/8/x/8-x/x|x-8/x/8-xx-x/8/x/8-x/x|
|x-5/x/5-xx-x/5/x/5-x/x|x-5/x/5-xx-x/5/x/5-x/x|
|x-5/x/5-xx-x/5/x/5-x/x|x-5/x/5-xx-x/5/x/5-x/x|
|----------------------|----------------------|
|----------------------|----------------------|
|[guitar 2]                                   |
|8-----8----8-----8/8--|8-----8----8---8-8/8--|
|8-----8----6-----6/6--|8-----8----6---6-6/5--|
|5-----5----5-----5/5--|5-----5----5---5-5/5--|
|5-----8----7-----7/7--|8-----5----7---7-7/5--|
|----------------------|----------------------|
|8-----8---------------|----------------------|

|C          F/C        |C7         F/C        |
|[guitar 1]                                   |
|--8---8------8---8----|------8------8---8----|
|x-8/8/8-xx-x/8/8/8-x/x|x-8/x/8-xx-x/8/8/8-x/x|
|x-5/5/5-xx-x/5/5/5-x/x|x-5/x/5-xx-x/5/5/5-x/x|
|x-5/5/5-xx-x/5/5/5-x/x|x-5/x/5-xx-x/5/5/5-x/x|
|----------------------|----------------------|
|----------------------|----------------------|
|[guitar 2]                                   |
|8-----8------------8--|8-----8----8------8/8-|
|8-----8----8\6-----8--|6-----5----6------6/6-|
|5-----5------------5--|5-----5----5------5/5-|
|8-----8------------8--|7-----5----7------7/7-|
|----------------------|----------------------|
|----------------------|8-----8---------------|

|C          F/C        |C7          F/C        |
|[guitar 1]                                    |
|--8---8------8---8----|------------8-8/8-5----|
|x-8/8/8-xx-x/8/x/8-x/x|x-8/x---x/x-8/8/8-8----|
|x-5/5/5-xx-x/5/x/5-x/x|x-5/x/5-x/x-5/5/5-5----|
|x-5/5/5-xx-x/5/x/5-x/x|x-5/x/5-x/5------------|
|----------------------|-----------------------|
|----------------------|-----------------------|
|[guitar 2]                                    |
|8------x-x-8-----8/8--|8-----8-----8-8--------|
|8------x-x-6-----6/6-/|8-----8-----6-6------5-|
|5------x-x-5-----5/5--|5-----5-----5-5------5-|
|8------x-x-7-----7/7-/|8-----8-----7-7------5-|
|----------------------|-----------------------|
|----------------------|-----------------------|

                                 x3
||:  C7(no3) F    |C       F    :|| C7(no3)  F    |C            F        |
||[guitar 1]                     ||                                      |
||-----8-------8--|--8-------8---||----8-------8--|----------------------|
||----8-8-----6-6-|-5-5-----6-6--||---8-8-----6-6-|----------------------|
||.------5-------5|----5-------5.||------5-------5|8^\p5--5--------------|
||.7/8-----5h7----|5-----5h7----.||7/8-----5h7----|-----10-8p5--5--------|
||----------------|--------------||---------------|-----------10-------10|
||----------------|--------------||---------------|--------------8-11^-8-|
||[guitar 2]                     ||                                      |
||-----8-------8--|--8-------8---||----8-------8--|--8-------------------|
||----8-8-----6-6-|-5-5-----6-6--||---8-8-----6-6-|-5-5----------------5-|
||.------5-------5|----5-------5.||------5-------5|----5--------5---5--5-|
||.7/8-----5h7----|5-----5h7----.||7/8-----5h7----|5-----5------7---7--5-|
||----------------|--------------||---------------|----------------------|
||----------------|--------------||---------------|----------------------|

|C        F/C        |C7          F/C         |
|[guitar 1]                                    
|--------------------|------------------------|
|--------------------|-----------------6-6-8-6|
|--------------------|-----------------5-5-5-5|
|--------------------|-----------------7-7-7-7|
|10------------------|------------5-----------|
|8-8--8-10^-10^-10^\-|10-10\8-5-8----8--------|
|[guitar 2]                                   |
|--8------x/8---x/8--|8-8-8-------8/8/8---8---|
|8-8------x/6---x/6--|8-6-6-------6/6/6---6---|
|5-5------x/5---x/5--|5-5-5-------5/5/5---5---|
|5-5------x/7---x/7--|8-7-7-------7/7/7---7---|
|--------------------|------------------------|
|--------------------|------------------------|

|C        F/C       |C7    F/C                 |
|[guitar 1]                                    |
|----8--------8---|----------------------------|
|---8-8------6-6--|----------------------------|
|------5--------5-|7^\p5-7p5-5-----------------|
|7/8------5h7-----|-----7-----7/8-8-8-8-8-8/8/8|
|-----------------|----------------------------|
|-----------------|----------------------------|
|[guitar 2]                                    |
|-----8-----8---8-|8----8-8-----8/8/8/8--8-----|
|8--x-8---6/6-6/6-|8--x-8-8-----6/6/6/6--5-----|
|5--x-5---5/5-5/5-|5--x-5-5-----5/5/5/5--5-----|
|5--x-5---7/7-7/7-|8--x-8-5-----7/7/7/7--5-----|
|-----------------|----------------------------|
|-----------------|----------------------------|

| C                        F/C      |C7           F/C            |
|[guitar 1]                                                      |
|-----------------------------------|----------------------------|
|-----------------------------------|-----------8p5---------8p5--|
|--------------------------8~---8~--|--8--8~p5-----5--8~p5-----5-|
|8h10-10-10-10-10/10/10-10---10---10|---10----10----------10-----|
|-----------------------------------|----------------------------|
|-----------------------------------|----------------------------|
|[guitar 2]                                                      |
|----8------------------------8-----|--8------------8------------|
|---8-8----------------------6-6----|-5-5----------6-6-----------|
|------5------------------------5---|----5------------5----------|
|7/8----------------------5h7-------|5----------5h7--------------|
|-----------------------------------|----------------------------|
|-----------------------------------|----------------------------|

|C               F/C        |C7           F/C             |
|[guitar 1]                                               |
|--------5------------------|--8p5------------------------|
|------10--10-5--------8p5--|-------8p5--------8^-8^------|
|8~p5------------8~p5-----9p|5----5----5-8^p5-5-----------|
|----10---10---10----10-----|-------------------------5-10|
|---------------------------|-----------------------10----|
|---------------------------|-----------------------------|
|[guitar 2]                                               |
|----8------------------8---|--8--------------------------|
|---8-8----------------6-6--|-5-5-----------6-6-----------|
|------5------------------5-|----5----------5-5--5--------|
|7/8----------------5h7-----|5----------5h7------7--------|
|---------------------------|-----------------------------|
|---------------------------|-----------------------------|

|C                 F/C                 |C7           F/C                     |
[guitar 1]                                                                   |
|--------------------------------------|--5--5--5--5--5--5--5--5--5--5--5--5-|
|------------8p5----8p5-----8p5----8p5-|--5--5--5--5--5--5--5--5--5--5--5--5-|
|-----8p5--------9------9-------9------|9-12-12-12-12-12-12-12-12-12-12-12-12|
|10------10----------------------------|-------------------------------------|
|--------------------------------------|-------------------------------------|
|--------------------------------------|-------------------------------------|
|[guitar 2]                                                                  |
|--------------------------------------|-------------------------------------|
|10^-^10-10^^-^^10-^10\^10/^10/^10-----|-------------------------------------|
|---------------------------------8^---|---------------10^\p8-10-------------|
|-----------------------------------10-|---8-10/10-10------------------------|
|--------------------------------------|-------------------------------------|
|--------------------------------------|-------------------------------------|
         [^^ = bend whole note]
         [^10 = prebend]

|C                 F/C             ||:C7           F/C                      :||
[guitar 1]                         ||                                        ||
|8-5-8---8/8--x-8-x-8-x-8-x--------||-8-x-8-x-8-x-8-x-8-x-8-x-8-x-8-x--------||
|8-5-8-8-8/8--x-8-x-8-x-8-x--------||-8-x-8-x-8-x-8-x-8-x-8-x-8-x-8-x--------||
|5-5-5-5-5/5--x-5-x-5-x-5-x--------||.5-x-5-x-5-x-5-x-5-x-5-x-5-x-5-x-------.||
|----------------------------------||.--------------------------------------.||
|----------------------------------||----------------------------------------||
|----------------------------------||----------------------------------------||
|[guitar 2]                        ||                                        ||
|----------------------------------||----------------------------------------||
|----------------------------------||----------------------------------------||
|8~--------------------------------||-----8-9-8-9-9^/^9/^9/^9-9^^/^^9/^^9/^^9||
|--10---10/10-10/10-10/10-10/10-10/||10-10-----------------------------------||
|----------------------------------||----------------------------------------||
|----------------------------------||----------------------------------------||
                                                  [^9 = prebend]
                                                  [^^9 = prebend whole note]

|C            F/C        |C7           F/C              |
[guitar 1]                                              |
|----------------------|--------------------------------|
|----------------------|--------------------------------|
|------------%---------|------------------%-------------|
|----------------------|--------------------------------|
|----------------------|--------------------------------|
|----------------------|--------------------------------|
|[guitar 2]                                             |
|----------------------|--------------------------------|
|-------------8--8/8-8-|8-8/8-8-10/10-11/11/11-10/10-x--|
|^^9\9~--------10------|-----------------------------x-8|
|--------10------------|--------------------------------|
|----------------------|--------------------------------|
|----------------------|--------------------------------|

|C          F/C        |C7          F/C         |
|[guitar 1]                                     |
|----------------------|------------------------|
|----------------------|------------------------|
|---------%------------|------------%-----------|
|----------------------|------------------------|
|----------------------|------------------------|
|----------------------|------------------------|
|[guitar 2]                                     |
|------------8-----8---|--8-----8-----8-----8---|
|----------x-8-x---8-x-|--8-x---8-x---8-x---8-x-|
|8-8p5-----x-5-x-5-5-x-|5-5-x-5-5-x-5-5-x-5-5-x-|
|-----8-10-x---x-5---x-|5---x-5---x-5---x-5---x-|
|----------------------|------------------------|
|----------------------|------------------------|


=============
litgo@aol.com

#----------------------------------PLEASE NOTE---------------------------------#
#This file is the author's own work and represents their interpretation of the #
#song. You may only use this file for private study, scholarship, or research. #
#------------------------------------------------------------------------------#

Disclaimer

A note on the content here:

The files archived on this site are the respective transcriber’s own work and represent their interpretations of the songs. You may only use these files for private study, scholarship or research. more on use of files >>

Section navigation

Tablature Section

Site info Navigation

Whotabs is not affiliated with The Who, its record company or management.