Whotabs – The Definitive Online Tablature and Gear Resource for The Who since 1997

Return to Whotabs

Jaguar – bass tab

Jaguar | bass tab
by The Who, 1967
>From The Who Sell Out reissue, 1995
Written by Pete Townshend (c)1994 Towser Tunes, Inc.

#----------------------------------PLEASE NOTE---------------------------------#
#This file is the author's own work and represents their interpretation of the #
#song. You may only use this file for private study, scholarship, or research. #
#------------------------------------------------------------------------------#


Tabbed by Colin

2012-07-10                                                                                           Whotabs www.thewho.net/whotabs/
(Please print horizontal/landscape mode)

I tabbed this from the reissue of The Who Sell Out, which is a full minute longer than the version from Thirty Years Of Maximum R&B.

G|-----------------------------------------------------------------|-----------------------------------------------------------------|
D|-----------------------------------------------------------------|-----------------------------------------------------------------|
A|-5-5-5-5-5-5-5-5-5-5-5-5-5-5-5-5-0-0-0-0-0-0-0-0-0-0-0-0-0-0-0-0-|-5-5-5-5-5-5-5-5-5-5-5-5-5-5-5-5-0-0-0-0-0-0-0-0-0-0-0-0-0-0-0-0-|
E|-----------------------------------------------------------------|-----------------------------------------------------------------|

G|-----------------------------------------------------------------|-----------------------------------------------------------------|
D|---------------------------------5-5-5-5-------------------------|---------------------------------5-5-5-5-------------------------|
A|-0-0-0-0-0-0-0-0-0-0-0-0-0-0-0-0---------5-5-5-5-5-5-5-5-5-5-5-5-|-0-0-0-0-0-0-0-0-0-0-0-0-0-0-0-0---------5-5-5-5-5-5-5-5-5-5-5-5-|
E|-----------------------------------------------------------------|-----------------------------------------------------------------|

G|-----------------------------------------------------------------|-----------------------------------------------------------------|
D|---------------------------------5-5-5-5-------------------------|---------------------------------5-5-5-5-------------------------|
A|-0-0-0-0-0-0-0-0-0-0-0-0-0-0-0-0---------5-5-5-5-5-5-5-5-5-5-5-5-|-0-0-0-0-0-0-0-0-0-0-0-0-0-0-0-0---------5-5-5-5-5-5-5-5-5-5-5-5-|
E|-----------------------------------------------------------------|-----------------------------------------------------------------|

G|---------------------------------|
D|---------------------------------|
A|-0-0-0-0-0-0-0-0-0-0-0-0-0-0-0-0-|
E|---------------------------------|

"Grace..."                        "Space..."                      "Race..."
G|-----------------------------------------------------------------------------------------------|
D|-----------------------------------------------------------------------------------------------|
A|-0-0-0-0-0-0-0-0-0-0-0-0-0-0-0-0-1-1-1-1-1-1-1-1-1-1-1-1-1-1-1-1-3-3-3-3-3-3-3-3-3-3-3-3-3-3-3-|
E|-----------------------------------------------------------------------------------------------|

G|-----------------------------------------------------------------|-----------------------------------------------------------------|
D|-----------------------------------------------------------------|-----------------------------------------------------------------|
A|-0-0-0-0-------------------------2-2-2-2-2-2-2-2-2-2-2-2-2-2-2-2-|-0-0-0-0-------------------------2-2-2-2-2-2-2-2-2-2-2-2-2-2-2-2-|
E|---------0-0-0-0-0-0-0-0-0-0-0-0---------------------------------|---------0-0-0-0-0-0-0-0-0-0-0-0---------------------------------|

G|-----------------------------------------------------------------|-----------------------------------------------------------------|
D|-----------------------------------------------------------------|-----------------------------------------------------------------|
A|-0-0-0-0-------------------------2-2-2-2-2-2-2-2-2-2-2-2-2-2-2-2-|-0-0-0-0-------------------------2-2-2-2-2-2-2-2-2-2-2-2-2-2-2-2-|
E|---------0-0-0-0-0-0-0-0-0-0-0-0---------------------------------|---------0-0-0-0-0-0-0-0-0-0-0-0---------------------------------|

I'm not too sure about this part:
G|--------------------------------------------------------------------------------------------------------------------------------------------------|
D|--------4-5---4-5-------4-5---4-5-------4-5---4-5-------4-5---4-5-------4-5---4-5-------4-5---4-5-------4-5---4-5---------------------------------|
A|-2-2-2------2-----2-2-2-----2-----2-2-2-----2-----2-2-2-----2-----2-2-2-----2-----2-2-2-----2-----2-2-2-----2-----2-2-2-2-2-2-2-2-2-2-2-2-2-2-2-2-|
E|--------------------------------------------------------------------------------------------------------------------------------------------------|

"Everything they've seen, you have seen"  "Everywhere they've been, you have been"
G|----------------------------------------|----------------------------------------|
D|----------------------------------------|----------------------------------------|
A|--5----5----5----5----5----5----5----5--|--5----5----5----5----5----5----5----5--|
E|----------------------------------------|----------------------------------------|

"Everything they've done, you have been and done already"
G|---------------------------------------------------------------|
D|---------------------------------------------------------------|
A|--5----5----5----5----5----5----5----5----2--------0--------5--|
E|---------------------------------------------------------------|

"Every lovely spot near or far"           "You can reach them, too, in your car"
G|----------------------------------------|----------------------------------------|
D|----------------------------------------|----------------------------------------|
A|--5----5----5----5----5----5----5----5--|--5----5----5----5----5----5----5----5--|
E|----------------------------------------|----------------------------------------|

"Or you might be there now if you own a Jag already"
G|---------------------------------------------------------------|
D|---------------------------------------------------------------|
A|--5----5----5----5----5----5----5----5----2--------0--------5--|
E|---------------------------------------------------------------|

G|--------------------------------------------------------------------------------|
D|--4----4----4----4------------------------4----4----4----4----------------------|
A|----------------------4----4----4----4------------------------4----4----4----4--|
E|--------------------------------------------------------------------------------|

"The radio blasting, the girls are glancing"
G|----------------------------------------|
D|--4----4----4----4----------------------|
A|----------------------4----4----4----4--|
E|----------------------------------------|

"The dash is dancing with gleaming dials"
G|------------------------------------------------------------------|
D|--4----4----4----4------------------------------------------------|
A|----------------------4----4----4----4----2-2-2-2-2-2-2-2-2-2-2-2-|
E|------------------------------------------------------------------|

G|-----------------------------------------------------------------|-----------------------------------------------------------------|
D|-----------------------------------------------------------------|-----------------------------------------------------------------|
A|-0-0-0-0-------------------------2-2-2-2-2-2-2-2-2-2-2-2-2-2-2-2-|-0-0-0-0-------------------------2-2-2-2-2-2-2-2-2-2-2-2-2-2-2-2-|
E|---------0-0-0-0-0-0-0-0-0-0-0-0---------------------------------|---------0-0-0-0-0-0-0-0-0-0-0-0---------------------------------|

G|-----------------------------------------------------------------|-----------------------------------------------------------------|
D|-----------------------------------------------------------------|-----------------------------------------------------------------|
A|-0-0-0-0-------------------------2-2-2-2-2-2-2-2-2-2-2-2-2-2-2-2-|-0-0-0-0-------------------------2-2-2-2-2-2-2-2-2-2-2-2-2-2-2-2-|
E|---------0-0-0-0-0-0-0-0-0-0-0-0---------------------------------|---------0-0-0-0-0-0-0-0-0-0-0-0---------------------------------|

"Grace..."                         "Space..."                     "Pace..."
G|-------------------------------------------------------------------------------------------------|
D|-------------------------------------------------------------------------------------------------|
A|-------------------------------------------------------------------------------------------------|
E|-0-0-0-0-0-0-0-0-0-0-0-0-0-0-0-0-1-1-1-1-1-1-1-1-1-1-1-1-1-1-1-1-3-3-3-3-3-3-3-3-3-3-3-3-3-3-3-3-|

"Grace..."                         "Space..."                     "Pace..."
G|-------------------------------------------------------------------------------------------------|
D|-------------------------------------------------------------------------------------------------|
A|-------------------------------------------------------------------------------------------------|
E|-0-0-0-0-0-0-0-0-0-0-0-0-0-0-0-0-1-1-1-1-1-1-1-1-1-1-1-1-1-1-1-1-3-3-3-3-3-3-3-3-3-3-3-3-3-3-3-3-|

G|-----------------------------------------------------------------|-----------------------------------------------------------------|
D|-5-5-5-5---------------------------------------------------------|-5-5-5-5---------------------------------------------------------|
A|---------5-5-5-5-5-5-5-5-5-5-5-5-0-0-0-0-0-0-0-0-0-0-0-0-0-0-0-0-|---------5-5-5-5-5-5-5-5-5-5-5-5-0-0-0-0-0-0-0-0-0-0-0-0-0-0-0-0-|
E|-----------------------------------------------------------------|-----------------------------------------------------------------|

G|-----------------------------------------------------------------|-----------------------------------------------------------------|
D|-5-5-5-5---------------------------------------------------------|-5-5-5-5---------------------------------------------------------|
A|---------5-5-5-5-5-5-5-5-5-5-5-5-0-0-0-0-0-0-0-0-0-0-0-0-0-0-0-0-|---------5-5-5-5-5-5-5-5-5-5-5-5-0-0-0-0-0-0-0-0-0-0-0-0-0-0-0-0-|
E|-----------------------------------------------------------------|-----------------------------------------------------------------|

"Jaguar..."                                                        "Jaguar..."
G|-----------------------------------------------------------------|-----------------------------------------------------------------|
D|-5-5-5-5---------------------------------------------------------|-5-5-5-5---------------------------------------------------------|
A|---------5-5-5-5-5-5-5-5-5-5-5-5-0-0-0-0-0-0-0-0-0-0-0-0-0-0-0-0-|---------5-5-5-5-5-5-5-5-5-5-5-5-0-0-0-0-0-0-0-0-0-0-0-0-0-0-0-0-|
E|-----------------------------------------------------------------|-----------------------------------------------------------------|

"Jaguar..."                                                        "Jag-u-ar!"
G|-----------------------------------------------------------------|-------------------|
D|-5-5-5-5---------------------------------------------------------|----5--------------|
A|---------5-5-5-5-5-5-5-5-5-5-5-5-0-0-0-0-0-0-0-0-0-0-0-0-0-0-0-0-|---------0----5----|
E|-----------------------------------------------------------------|-------------------|

This should be close enough to what Entwistle's playing. It's hard to tell what he's playing in this song, since he's just basically 
playing what Pete's playing. 
This is just a start for tabbing this Sell Out outtake. Enjoy!

Long live rock!

#----------------------------------PLEASE NOTE---------------------------------#
#This file is the author's own work and represents their interpretation of the #
#song. You may only use this file for private study, scholarship, or research. #
#------------------------------------------------------------------------------#

Disclaimer

A note on the content here:

The files archived on this site are the respective transcriber’s own work and represent their interpretations of the songs. You may only use these files for private study, scholarship or research. more on use of files >>

Section navigation

Tablature Section

Site info Navigation

Whotabs is not affiliated with The Who, its record company or management.