Whotabs – The Definitive Online Tablature and Gear Resource for The Who since 1997

Return to Whotabs

Let’s See Action – bass tab

Let's See Action | bass tab
by The Who, 1971
>From Thirty Years Of Maximum R&B, 1994
Written by Pete Townshend (c)1971 Towser Tunes, Inc./Fabulous Music Ltd.

#----------------------------------PLEASE NOTE---------------------------------#
#This file is the author's own work and represents their interpretation of the #
#song. You may only use this file for private study, scholarship, or research. #
#------------------------------------------------------------------------------#


Tabbed by Colin

2012-01-28                                       Whotabs www.thewho.net/whotabs/


This may not be 100% accurate, but it's close enough. Entwistle's too good of a 
bass player for me to hit every single one of the notes spot-on.

Verses
|-----------------------------------3-------------------------|
|---------------------------------------3-3-------------------|
|-3-3-0---3-3-0---3-3-0---3-3-0---1---1-----0-3-3-0---3-3-0---|
|-------3-------3-------3-------3-------------------3-------3-|

Play this during the guitar solo
|-------------------------------------------3-------------------------|
|----10-10\----10-10\----10-10\----10-10\-------3-3-------------------|
|-3-3-------3-3-------3-3-------3-3-------1---1-----0-3-3-0---3-3-0---|
|-----------------------------------------------------------3-------3-| x2

Then repeat the verse part only twice

This is the "Give me a drink, boy, wash my feet..." part
|-17-16-14----------17-16-14-------------|
|----------17-15-17----------17-15-17----|
|-------------------------------------15-|
|----------------------------------------| x2

Then here is the "I don't know where I'm going..." part
|--------------------------------------------------|
|------------------------------------5-5-5-5-5-5-5-|
|----------3-2-0-----------------------------------|
|-1-1--3-3-------3-1-2-6-6-3-3-3-3-3---------------|

Repeat the verse part four more times after this

This part goes on throughout the whole rest of the song, during the "Nothing is 
everything..." part that fades out at the end of the song
|-------|
|-8-----|
|---8---|
|-----8-|

That should be it. It's one of the Ox's more simpler bass lines from the 
Lifehouse/Who's Next era, so it shouldn't be too hard to learn (it wasn't too 
hard to transcribe, either). Enjoy this tab and get some use out of it.

Long live rock! (I need it every night)


#----------------------------------PLEASE NOTE---------------------------------#
#This file is the author's own work and represents their interpretation of the #
#song. You may only use this file for private study, scholarship, or research. #
#------------------------------------------------------------------------------#

Disclaimer

A note on the content here:

The files archived on this site are the respective transcriber’s own work and represent their interpretations of the songs. You may only use these files for private study, scholarship or research. more on use of files >>

Section navigation

Tablature Section

Site info Navigation

Whotabs is not affiliated with The Who, its record company or management.