Whotabs – The Definitive Online Tablature and Gear Resource for The Who since 1997

Return to Whotabs

Love Ain’t For Keeping – bass tab

Love Ain't For Keeping | bass tab
By The Who
>From Who's Next, 1971
Written by Pete Townshend (c)1971 Fabulous Music Ltd.

#----------------------------------PLEASE NOTE---------------------------------#
#This file is the author's own work and represents their interpretation of the #
#song. You may only use this file for private study, scholarship, or research. #
#------------------------------------------------------------------------------#


                 Transcribed by trb


 Q=78
 4/4
  
|----------------------------|-------------------------|
|-------7--------7-(7)-5-5---|-----7-5-7-------7-5-----|
|-0-0-0----5h7-0-----------7-|-0-0-------5h7-0-----7-5-|
|----------------------------|-------------------------|

  Laying on...
|----/9-7----------------|---------------------------|
|-5-------------/9-7-7---|---------4-5-6-7-5-7-5-----|
|---------0-5-5--------0-|-5-5-5-7---------------7-5-|
|------------------------|---------------------------|


|-----/9-7----------------|-----------------------------|
|-5-5------------/9-7-7---|---------4-5-6-7-7-5-7-5-----|
|----------0-5-5--------0-|-5-5-5-7-----------------7-0-|
|-------------------------|-----------------------------|

  You bring me...
|-----------7-------------|-7-5-x-----------------------|
|-------------0-5h7-------|-------7-(7)-5-------7-5-----|
|-5-5-5-5-5---------5-5-5-|---------------7-0-0-----7S5-|
|-------------------------|-----------------------------|


  Lay down... 2/4          4/4
|-----------|------------|--------------------|
|------5----|-5-5--0-5h7-|-----7----------5h7-|
|-3---------|------------|-0-0---7-0--5h7-----|
|-----------|------------|--------------------|


  ~                           Black ash...
|-7-5-----------------------|----/9-7----------------|
|-----7-7-----5-5-5-7-5-----|-5-------------/9-7-7-7-|
|---------5h7-----------7-5-|---------0-5-5----------|
|---------------------------|------------------------|


|-----------------------------|-------/9-7--------------|
|---------4-5-6-7-7-5h7-5-----|-5-5-5------------/9-7---|
|-5-5-5-7-----------------7-5-|------------0-5-5------0-|
|-----------------------------|-------------------------|

                                The seeds...  
|-----------------------------|-----------7-5------------|
|---------4-5-6-7-7-5h7-5-----|---------------0h7--------|
|-5-5-5-7-----------------7-0-|-5-5-5-5-5---------5-5-5--|
|-----------------------------|--------------------------|


                             Lay down..  2/4
|-7-5----------------------|-----------|------------|
|-----0-7----------7-5-----|------5----|-5-5--0-5h7-|
|----------5-7-0-0-----7S5-|-3---------|------------|
|--------------------------|-----------|------------|


 4/4
|----------------------|-5-----------------------|
|-------7----------5-7-|---7-5-7-------7-7-5-----|
|-0-0-0---7-0--5h7-----|---------5h7-0-------7-5-|
|----------------------|-------------------------|


             2/4          4/4
|-----------|------------|-----------------------|
|------5----|-5-5--0-5h7-|-----7-----------5-5-6-|
|-3---------|------------|-0-0---7-0-0-5-7-------|
|-----------|------------|-----------------------|

                                    Guitar Solo
|---------------------------------|-------/9-7----------------|
|-7-7-------7-7-(7)-5---5-7-5-----|-5-5-5------------/9-7-7---|
|-----5h7-0-----------7-------7-5-|------------0-5-5--------0-|
|---------------------------------|---------------------------|


|-----------------------------|-----/9-7----------------|
|---------4-5-6-7-7-5-7-5-----|-5-5--------------/9-7---|
|-5-5-5-7-----------------7-5-|----------0-5-5-5------0-|
|-----------------------------|-------------------------|


|-----------------------------|-----------7-5------------|
|---------4-5-6-7-7-5-7-5-----|---------------0h7--------|
|-5-5-5-7-----------------7-0-|-5-5-5-5-5---------5-5-5--|
|-----------------------------|--------------------------|


                              Lay down... 2/4
|-7-5-----------------------|-----------|------------|
|-----0-7-7---------7-5-----|------5----|-5-5--0-5h7-|
|-----------5-7-0-0-----7S5-|-3---------|------------|
|---------------------------|-----------|------------|


 4/4
|-----------------------|-----------------------------|
|-----7---------------5-|-7-------------5-7-5h7-5-----|
|-0-0---0-5h7-0-0-5h7---|---5-7-0-0-5h7-----------7-5-|
|-----------------------|-----------------------------|


             2/4          4/4
|-----------|------------|------||
|------5----|-5-5--0-5h7-|------||
|-3---------|------------|-0----||
|-----------|------------|------||


#----------------------------------PLEASE NOTE---------------------------------#
#This file is the author's own work and represents their interpretation of the #
#song. You may only use this file for private study, scholarship, or research. #
#------------------------------------------------------------------------------#

Disclaimer

A note on the content here:

The files archived on this site are the respective transcriber’s own work and represent their interpretations of the songs. You may only use these files for private study, scholarship or research. more on use of files >>

Section navigation

Tablature Section

Site info Navigation

Whotabs is not affiliated with The Who, its record company or management.