Whotabs – The Definitive Online Tablature and Gear Resource for The Who since 1997

Return to Whotabs

Meher Baba M3 – guitar tab

Meher Baba M3 | guitar tab
by Pete Townshend
>From Psychoderelict, 1993
Written by Pete Townshend (c)1993 Towser Tunes Inc./Eel Pie Publishing Ltd.

#----------------------------------PLEASE NOTE---------------------------------#
#This file is the author's own work and represents their interpretation of the #
#song. You may only use this file for private study, scholarship, or research. #
#------------------------------------------------------------------------------#

Tab by §tløpez (stlopez@webtv.net)

2001-12-10                    Whotabs              www.thewho.net/whotabs/

All chords and rhythym figures are approximate

  
C min petatonic scale (3rd position)
|------------------------------------3--6--|
|------------------------------6--8--------|
|------------------------3--5--------------|
|---------------1--3--5--------------------|
|--------1--3------------------------------|
|--1--3------------------------------------|
  
  
C min petatonic (8th position)
|----------------------------------------8--11--|
|---------------------------------8--11---------|
|--------------------------8--10----------------|
|-------------------8--10-----------------------|
|--------6--8--10-------------------------------|
|--6--8-----------------------------------------|
  
  
Rhy Fig 1
|----------------------------------------|
|--10---8--------------------------------|
|--10---9--------------------------------|
|--10--10---8--10--10--8--10--10---------|
|-----------8--10--10--8--10--10---------|
|---8---8---8--8---8---8--8---8----------|
    T    T
  
Rhy fig 1 (cont.)
|---------------------------------|
|--10---8-----------8-----8---10--|
|--10---9-----------8-----8---10--|
|--10--10--8--10----8-10--8---10--|
|----------8--10------10----------|
|--8----8-------------------------|
  
Rhy fig 2
|--------------------------------|--------|
|--------------------------------|--------|
|-------------------------------*|--------|
|--------------------------------|--------|
|--3--3--3--3----3--3--3--3-----*|--1/3---|
|--------------1------------3----|--------|
  
  C ×3555×
C/Bb ×3333×
  
The music only version starts out with 2 guitars soloing over each
other, the left panned one playing in the Cmin petatonic (3rd position),
and the right panned one playing in the 8th position from 0:00-0:39.
They play throughout the song.
 
0:40-1:27-- C C/Bb (This is where the original starts in)
  
  
1:28-2:15 (tempo change) Rhy fig 1
(2:00)--We demand a universal grid! ×4
  
  
2:16-2:36--Rhy fig 2
  
  
2:37-3:17--Rhy fig 1
  
  
3:18-3:38 (outro)--C/Bb C
 
#----------------------------------PLEASE NOTE---------------------------------#
#This file is the author's own work and represents their interpretation of the #
#song. You may only use this file for private study, scholarship, or research. #
#------------------------------------------------------------------------------#

Disclaimer

A note on the content here:

The files archived on this site are the respective transcriber’s own work and represent their interpretations of the songs. You may only use these files for private study, scholarship or research. more on use of files >>

Section navigation

Tablature Section

Site info Navigation

Whotabs is not affiliated with The Who, its record company or management.