Whotabs – The Definitive Online Tablature and Gear Resource for The Who since 1997

Return to Whotabs

Overture/It’s A Boy (from Tommy) Live – guitar tab

Overture/It's A Boy (from Tommy) Live | guitar tab
By The Who, Feb. 14, 1970
>From Live at Leeds (Deluxe Edition), 2001
Written by Pete Townshend (c)1969 Fabulous Music Ltd.

#----------------------------------PLEASE NOTE---------------------------------#
#This file is the author's own work and represents their interpretation of the #
#song. You may only use this file for private study, scholarship, or research. #
#------------------------------------------------------------------------------#

==============                                                        
transcribed by               2005-03-13             Whotabs                    
litgo@aol.com          corr1 2007-05-18             www.thewho.net/whotabs     
==============                                                        

[typo in "Pinball Wizard" section corrected by John C (jc1033@gmail.com)]

Gm        3t55333
Ab7       4t66544
C#m       x4t6654
Bsus4     7tx9977
Bvii      7tx9877
Gsus4     3tx5533
G         3tx5433
Fsus4     1tx3311
F         1tx3211
G         x20033 (outro)
Em7       020033 (outro)
A5        x02233 (outro)


[Note: timing, leads and strumming patterns are approximate.]


|C    |C/Bb |Am    |C/Ab  |C/G   |C     |Gsus4|G     
|-----|-----|5-----|------|------|------|3----|3----|
|5----|5----|5-----|5-----|5-----|------|3----|3----|
|5----|5----|5-----|5-----|5-----|5-----|5----|4----|
|5----|5----|5-----|5-----|5-----|5-----|5----|5----|
|-----|-----|------|------|-----3|3--3--|-----|-----|
|8----|6----|5-----|4-----|3-----|---3--|3----|3----|

|Ebmaj7     |             |Bb6    |Gm           |
|3----------|-------------|3------|-------------|
|3----------|-------------|3------|-------------|
|3..........|------%------|3......|3............|
|5----------|-------------|5------|3------------|
|6----------|-------------|-------|5------------|
|-----------|-------------|-------|6------------|
[neck pickup]

|Gm    |         |Dsus4 |D     |
|------|3--------|3-----|2-----|
|------|3--2-----|3-----|3-----|
|3.....|3--3---0-|2-----|2-----|
|5-----|5--4---0-|0-----|0-----|
|5-----|5--4-----|------|------|
|3-----|3--2-----|------|------|

|Gm          |            |
|3-----3--3--|------------|
|3--3--3--3--|3--3--3--3--|
|3--3--3--3--|3--3--3--3--|
|5--5--5--5--|5--5--5--5--|
|5--5--5--5--|5--5--5--5--|
|3t-3t-3t-3t-|3t-3t-3t-3t-|
[bridge pickup]

[We're Not Gonna Take It]
||:G / / / /   C | C     G   F  C :||x4
||[electric]     |                 ||
||---------------|-----------------||
||---------------|---1-------1--1--||
||.0-0-0-0-0-----|---0---0---2--0-.||
||.0-0-0-0-0---2-|-2-2---0---3--2-.||
||-3-3-3-3-3---3-|-3---------3--3--||
||---------------|-------3---------||

  |G            |C/G               |  G7          |C/G   |
--|--------3----|-----------3------|----------3---|3-----|
--|--------0----|---1-1-1-1-1------|----3-3-3-3---|1-----|
--|0-------0----|---0-0-0-0-0----0-|----0-0-0-0---|0-----|
--|0-------0----|---2-2-2-2-2----0-|0---3-3-3-3---|2-----|
--|-------------|------------------|--------------|------|
-3|3-3-3-3-3----|---3-3-3-3-3------|3---3-3-3-3---|3-----|

[Go To The Mirror]     x4
||:G     /   D    C  :||
||---3-3-----2----0---||
||---3-3-----3----1---||
||.--0-0-0---2----0--.||
||.--0-0-0---0----2--.||
||----------------3---||
||-3-----3------------||
[neck pickup]

                         x2
||:F            C    Bb :||
||-----------------------||
||-----------------------||
||.-------------5----3--.||
||.---3-3-3-----5----3--.||
||----3-3-3-----3----1---||
||-1--1-1-1--------------||

                       x3
||:F           C  Bb  :||F           C  Bb   A|
||---------------------||---------------------|
||---------------------||---------------------|
||.------------5--3/3-.||------------5--3/3--2|
||.------------5--3/3-.||------------5--3/3--2|
||-3-3-3-3-3---3--1/3--||3-----------3--1/3--0|
||-1-1-1-1-1-----------||1--------------------|
[bridge pickup]

|A              |Dm       C |Bb         |
|---------------|1-----1----|-----------|
|--------------3|3-----2--1-|3----------|
|2----------2--2|2-----3--0-|3----------|
|2----------2--0|0-----0--2-|3-----3----|
|0----------0---|---------3-|1-----1/3-3|
|---------------|-----------|-----------|

|C7sus4     |              |C               |               |
|6----------|6-------------|----------------|---------------|
|6-------6-6|6---------6-6-|----------------|---------------|
|3-----3-3-3|3-------3-3-3-|5-5-5-5-5-5-5-5-|5--------------|
|3---3-3-3-3|3---3-3-3-3-3-|5-5-5-5-5-5-5-5-|5--------------|
|3---3-3-3-3|3-3-3-3-3-3-3-|3-5-3-3-3-5-3-3-|3--------------|
|-----------|--------------|----------------|---------------|

[See me, Feel me]
|Ebmaj7     |Fsus4 F  |Fsus4 F    |G    |
|3----(3)---|1----1---|1----1-----|3----|
|3----(3)--x|1----1---|1----1-----|0----|
|3----(3)--x|3----2---|3----2---0-|0----|
|1----(1)--x|3----3---|3----3---0-|0----|
|-----------|---------|-----------|-----|
|-----------|--------1|-----------|-----|


|Ebmaj7  |Fsus4 F  |Fsus4 F  |
|3-------|1----1---|1----1---|
|3----(3)|1----1---|1----1---|
|3----(3)|3----2---|3----2---|
|1----(1)|3----3---|3----3---|
|--------|---------|---------|
|--------|---------|---------|
[neck pickup]
 
|Em              |                    |
|----------------|--------------------|
|----------------|--------------------|
|----------------|--------------------|
|----------------|--------------------|
|----2-2-2-2-2-2-|2-----------------0-|
|0-0-0-0-0-0-0-0-|0----0/0/0--0-2h4---|
[bridge pickup]

|B7sus4          |B             |
|-----5-----5----|--------------|
|-----5-----5----|--------------|
|-----4---4-4-4--|4-----4--4--4-|
|-----4---4-4-4--|4-----4--4--4-|
|2----2---2-2-2--|2-----2--2--2-|
|----------------|--------------|

                       x4
||:E5 E5 E5 E  B  A   :||E           B  A  Ab|
||---------------------||--------------------|
||---------------------||--------------------|
||.------------4--2/2-.||------------4--2----|
||.------------4--2/2-.||------------4--2--6-|
||-------------2--0/0--||------------2--0--6-|
||-0-0-0-0-0-----------||0-----------------4-|

|Ab7       |C#m    B  |A           |
|----------|4---4-----|------------|
|----------|5---5-----|------------|
|----------|6---6--4--|2-----------|
|6-----6--x|6---6--4--|2------2-2-2|
|6-----6--x|4---4--2--|0------0-0-0|
|4-----4---|----------|------------|

|Bsus4           |             |B               |                   |
|----------------|5---5---5---5|----------------|-------------------|
|----------------|5---5---5---5|----------------|-------------------|
|4-4-4-2-2-2-2-2-|2-2-2-2-2-2-2|4---4---4---4-4-|4-------4---4-4----|
|4-4-4-2-2-2-2-2-|2-2-2-2-2-2-2|4---4---4---4-4-|4-------4---4-4----|
|2-2-2-2-2-2-2-2-|2-2-2-2-2-2-2|2-2-2-2-2-2-2-2-|2-----2-2-2-2-2-0/0|
|----------------|-------------|----------------|-------------------|

[Listening to You]
|A    B   |C         |A  B |E   |A  B   |C   |G  D |Bsus4       |Bvii   |
|---------|----------|-----|----|-------|----|3--2-|------------|-------|
|---------|----------|-----|----|-------|----|3--3-|--7-7-7-7-7-|7-----7|
|2-2--4-4-|5.......--|2--4-|----|2--4-4-|5---|0--2-|--9-9-9-9-9-|8-----8|
|2-2--4-4-|5.......-2|2--4-|----|2--4-4-|5---|0--0-|--9-9-9-9-9-|9-----9|
|0-0--2-2-|3.......-0|0--2-|2---|0--2-2-|3---|-----|------------|-------|
|---------|----------|-----|0...|-------|----|-----|--7-7-7-7-7-|7-----7|

|E5 E5 E5 E  B  A   |E5 E5 E5 E  B  A |F           C  Bb  |F         C  (Bb)|
|-------------------|-----------------|-------------------|-----------------|
|-------------------|-----------------|-------------------|-----------------|
|------------4--2/2-|------------4--2-|----------5/5--3---|----------5/5----|
|------------4--2/2-|------------4--2-|----------5/5--3---|----------5/5----|
|------------2--0/0-|------------2--0-|3-3-3-3-3-3/3--1---|3--3--3---3/3----|
|0-0-0-0-0----------|0-0-0-0-0--------|1-1-1-1-1----------|1--1--1----------|

                                       x4
||:G  G  G  G  G   C |      G   F  C :||
||-------------------|----------------||
||-------------------|----------------||
||.0--0--0--0--0-----|---------------.||
||.0--0--0--0--0-----|--2-2-0-2h3--2-.||
||-----------------3-|3---------------||
||-3--3--3--3--3-----|----------------||

[Pinball Wizard]
||:Gsus4                  |G                      :||x4
|| e s s e s e s e e s s   e s s e s e s e e s s   ||
||------------------------|------------------------||
||-3-3-3-3-3-3-3-3-3-3-3--|3-3-3-3-3-3-3-3-3-3-3---||
||.5-5-5-5-5-5-5-5-5-5-5--|4-4-4-4-4-4-4-4-4-4-4--.||
||.5-5-5-5-5-5-5-5-5-5-5--|5-5-5-5-5-5-5-5-5-5-5--.||
||------------------------|------------------------||
||-3-3-3-3-3-3-3-3-3-3-3--|3-3-3-3-3-3-3-3-3-3-3---||
[neck pickup]

||:Fsus4                  |F                      :||x2
||:e s s e s e s e e s s  |e s s e s e s e e s s  :||
||------------------------|------------------------||
||-1-1-1-1-1-1-1-1-1-1-1--|1-1-1-1-1-1-1-1-1-1-1---||
||.3-3-3-3-3-3-3-3-3-3-3--|2-2-2-2-2-2-2-2-2-2-2--.||
||.3-3-3-3-3-3-3-3-3-3-3--|3-3-3-3-3-3-3-3-3-3-3--.||
||------------------------|------------------------||
||-1-1-1-1-1-1-1-1-1-1-1--|1-1-1-1-1-1-1-1-1-1-1---||

[It's A Boy]

D/C |D               |               |
----|2--------2------|2--------------|
----|3--------3------|3--------------|
-2--|2--------2------|2--------------|
-0--|0--------0------|0---------0----|
-3--|----------------|-------------0-|
----|----------------|---------------|
[bridge pickup]

|                        |             D/B    D/C     |
|------------------------|---------------------0------|
|-----3--3-3-3-------3-3-|----3-3--3---3-3---3------3-|
|-----2--2-2-2----2--2-2-|----2-2--2---0-0---0------0-|
|-0---------------0--0-0-|---------0------------------|
|------------3-----------|2/3---------------------3---|
|------------------------|----------------------------|

|                             |             D/B    D/C     |
|-----------------------------|----------------------------|
|------3--3----3---3---3----3-|--3---3-------3----3--3-----|
|-2--2----2--2---2---2---2-2--|2---2----2--0------0--0-----|
|-0-------0--------------0----|---------0------------------|
|----------------3------------|3---------------2/3---3--0--|
|-----------------------------|----------------------------|

|--------------------------------|-----------------------------|
|--------------------------------|-------------------------3---|
|-----(2)------------------------|-------0-----------------2---|
|-0-3p0/x--3p0-0-3p0-0---0-0-0-0-|---3p0-0-0-0-0-0---0-0---0---|
|----------------------3---------|-----------------3-----------|
|--------------------------------|-----------------------------|

|5---5----5-----5---5-5---|7----7----7---7----7-7------|
|6---6----6-----6---6-6---|8----8----8-8-8----8-8------|
|----5----5---5-5---5-5---|7----7----7-7-7----7-7------|
|-------------------------|----------------------------|
|-------------------------|----------------------------|
|-------------------------|----------------------------|

|5------5----5-------------------|/7-----7---------------------|
|6----6-6--6-6-6--6--------------|/8---8-8---8---8-------------|
|5----5----5---5--5--------------|/7---7---7---7----7----------|
|--------------------------------|------------------0--0-------|
|--------------------------------|-----------------------------|
|--------------------------------|-----------------------------|

|2p0--------0--------|-----------------|
|----3--------3--3---|2--------x-3-----|
|------2------0--0---|0--------x-0-0---|
|(0)-----------------|-----------------|
|---------3------3---|2--------------0-|
|--------------------|-----------------|

|--------------------------------|----------------------------|
|--------------------------------|----------------------3-----|
|--------------------------------|-----(0)--------------0-----|
|-0-3p0/0--3p0/0-3p0/0---0/0/0/0-|---3p0/0-0/0/0----0/0/0---0/|
|----------------------3---------|----------------3-----------|
|--------------------------------|----------------------------|

|--------------------------------|-----------------------|
|--------------------------------|--3----3------3--------|
|--------------------------------|--0----0------0------0-|
|0--3p0/0--3p0/0-3p0/0-3p0/0-0/0-|--------------0----0---|
|--------------------------------|3----3----3---3--------|
|--------------------------------|-----------------------|

|--------------------------------|--------------------------|
|--------------------------------|----------------------3---|
|--------------------------------|----------------------2--0|
|-3p0-0-0----x-x--3p0-0x-0---x-x-|-3p0-0-0-x-x---x--3---0---|
|--------------------------------|------------------3-------|
|--------1----------------1------|--------1-1----3--1-------|

|5--5--5--5--5--5--5--5--5--|7--7--7--7--7--7--7--7--|
|6--6--6--6--6--6--6--6--6--|8--8--8--8--8--8--8--8--|
|5--5--5--5--5--5--5--5--5--|7--7--7--7--7--7--7--7--|
|--(0)----------0--0--------|0-----------------0--0--|
|---------------------------|------------------------|
|---------------------------|------------------------|
[palm mute                                           ]

|5--5--5--5--5--5--5--5--7--|7--7--7--7--7--7--x----|
|6--6--6--6--6--6--6--6--8--|8--8--8--8--8--8--x----|
|5--5--5--5--5--5--5--5--7--|7--7--7--7--7--7--x----|
|---------------------------|-----------------------|
|---------------------------|-----------------------|
|---------------------------|-----------------------|
[palm mute                                          ]

|x--5-5--5-5--3-3--x--x--------|x--5-5-------5-5--x-x---|
|x--7-7--7-7--5-5--x--x--------|x--7-7--7-x--6-6--6-x---|
|x--7-7--7-7--5-5--x--x--------|x--7-7--x-x--5-5--5-5---|
|------------------------------|------------------------|
|------------------------------|------------------------|
|------------------------------|----------5-------------|

|x-10-10--10------5-5--7-----|------------------------|
|x-7--7---7--7----6-6--8-----|------------------------|
|x-7--7---7--7----5-5--7-----|------------------------|
|--0-------------------0-----|-----------------0------|
|----------------------------|------------------------|
|----------------------------|------------------------|

|-----------------|-------------------|
|7--7--5-----7----|------7--8--6--6---|
|7--7--5--7--7----|5--7--7--7--5--5---|
|-0---------------|-------------------|
|-----------------|-------------------|
|-----------------|-------------------|
[neck pickup]

|-----------------|-----------------------|
|7--7--5--7--7----|5--7--7--(0)-6-4--4----|
|7--7--5--7--7----|5--7--7--(0)-5-3--3----|
|--(0)---(0)(0)---|0-(0)(0)---------------|
|-----------------|-----------------------|
|-----------------|-----------------------|

|D5                |            Cadd9 G/B   |
|------------------|------------------------|
|3---3----3---3----|--3---3---3-3--3--------|
|2---2----2---2----|--2---2---0-0--0--0-----|
|0---0----0---0----|--0---------------0-----|
|-------3----------|3-----------3--2--------|
|------------------|------------------3-----|

|D5                |            Cadd9       |
|------------------|------------------------|
|3---3----3---3----|--3---3-----3-----------|
|2---2----2---2----|--2---2-----0-----------|
|0---0----0---0----|--0---------0-----------|
|-------3--(3)-----|3--(3)------3-----------|
|------------------|------------------------|
                                  [bridge pickup]

|D5                |            Cadd9 G/B   |
|------------------|------------------------|
|3---3----3---3----|--3---3---3-------------|
|2---2----2---2----|--2---2---2---0-0-0-----|
|0---0----0---0----|--0---0-------0-0-0-----|
|-------3----------|3-----------3-3-2-------|
|------------------|------------------3-----|

|D5                |           Cadd9  G/B|
                                      Cap-
|------------------|---------------------|
|3---3--------3----|------3---3-----3-3--|
|2---2----2---2----|--2---2-----0-0-0-0--|
|0---0----0---0----|--0---0---------0-0--|
|-------3----------|3-----------3-3-2----|
|------------------|------------------3--|

|D5                              |             Cadd9     G/B        |
-tain Walker didn't come home his unborn child will never know him   
|--------------------------------|----------------------------------|
|3----3------------------3-------|-------3-----3----3----3----------|
|2----2---------2--------2-------|--2----2-----0----0----0----0-----|
|0----0---------0--------0-------|--0----0---------------0----0-----|
|-------------3------------------|3------------3----3----2----------|
|--------------------------------|----------------------------3-----|

|D5                |           Cadd9 G/B|
                                      Be-
|------------------|--------------------|
|3---3--------3----|------3-------3-3-3-|
|2---2----2---2----|--2---2---0---0-0-0-|
|0---0----0---0----|--0---0-------0-0-0-|
|-------3-----0----|3-----------3-3-2---|
|------------------|------------------3-|

|D5                                     |                Cadd9     G/B        |
-lieve him missing with a number of men, don't expect to see him again        |
|---------------------------------------|-------------------------------------|
|3---------3------------------------3---|--------3-------3----3----3----------|
|2---------2--------------2---------2---|--------2----0--0----0----0----0-----|
|0---------0--------------0--0------0---|--------0----0------------0----0-----|
|-------------------------3-------------|3---------------3----3----2----------|
|---------------------------------------|-------------------------------3-----|

|D5                |Cadd9      |
|------------------|----3------|
|3---3--------3---3|--3-3------|
|2---2----2---2----|--0--------|
|0---0----0---0----|-----------|
|-------3----------|3---------0|
|------------------|-----------|

|-----------------------------|------------------------|
|-----------------------------|--------------------3---|
|-----------------------------|--------------------2---|
|3^p0-x/x--0--3^p0-x-x------x-|3^p0-x-x-x-x-----0--0---|
|---------------------------x-|-----x---x-------0------|
|--------1-------------x--x---|-------------3^--1------|

|------------------------------------|
|------------------------------------|
|----------------5^p0-5^p0-5^p0-5^p0-|
|5^0-5^0-5^0-5^0-----5----5----5----5|
|---5---5---5---5--------------------|
|------------------------------------|

|------2-------------------------------|
|------3-------------------------------|
|0-----2------------0---5^0----5^0-----|
|0--0--0------------0-------5------5---|
|--------------------------------------|
|--------------------------------------|

|               D             |Cadd9                   |
|-----------------2------2----|--0---------------------|
|-------------------3------3--|----3-----3-------------|
|5^0----5^0-----------2------2|------2-----2-----------|
|----5------5---0-------0-----|--------------0---------|
|-----------------------------|3-------3---------------|
|-----------------------------|------------------------|

|G/B                          |
|-----------------------------|
|3----------------------------|
|0----------------------------|
|0----------------------------|
|2----------------------------|
|-----------------------------|
                     [neck pickup]

|------------------------|7-----------------------|
|------3-------------(6)-|6-----------------------|
|--------------------(5)-|5-----------------------|
|0--0--0--0--0--0--0--0--|0--0--0--0--0--0--0--0--|
|------------------------|------------------------|
|------------------------|------------------------|

|------------------------|------------------------|
|4-----------------------|4--4--4--4--4--4--4-----|
|3-----------------3--3--|3--3--3--3--3--3--3--0--|
|0--0--0--0--0--0--0--0--|0--0--0--0--0--0--0--0--|
|------------------------|------------------------|
|------------------------|------------------------|

|Dsus2           |Dsus2           |Dsus2           |Cadd9   G/B      |
|--0-----0-----0-|--0-----0-----0-|--0-----0-----0-|--0-------0------|
|----3-----3-----|----3-----3-----|----3-----3-----|----3-------3----|
|------2-----2---|------2-----2---|------2-----2---|------2-------0--|
|0---------------|0---------------|0---------------|-----------------|
|----------------|----------------|----------------|3-------2--------|
|----------------|----------------|----------------|-----------------|

|Dsus2           |Dsus2           |
                            It's a 
|--0-----0-----0-|--0-----0-----0-|
|----3-----3-----|----3-----3-----|
|------2-----2---|------2-----2---|
|0---------------|0---------------|
|----------------|----------------|
|----------------|----------------|

|Dsus2    |Cadd9   G/B   |Dsus2     |           |
 boy, Mrs. Walker, it's a boy.             It's a
|-0---0--0|--0-----0-----|--0--0--0-|--0--0---0-|
|--3---3--|---3-----3----|---3--3---|---3--3----|
|---2---2-|----0-----0---|----2--2--|----2--2---|
|0--------|--------------|0---------|0----------|
|---------|3-----2-------|----------|-----------|
|---------|--------------|----------|-----------|

|Dsus2    |Cadd9   G/B   |Dsus2     |           |
 boy, Mrs. Walker, it's a boy.                 A 
|-0---0--0|--0-----0-----|--0--0--0-|0----------|
|--3---3--|---3-----3----|---3--3---|3----------|
|---2---2-|----0-----0---|----2--2--|2----------|
|0--------|--------------|0---------|0----------|
|---------|3-----2-------|----------|-----------|
|---------|--------------|----------|-----------|

|G      |Em7    |A7sus4    |A          |
 Son.  A Son.  A Son.                   
|3------|3------|3---------|-----------|
|3------|3------|3---------|-----------|
|0------|0------|2---------|2----------|
|0------|0------|2---------|2----------|
|-------|2------|0---------|0----------|
|3------|-------|----------|-----------|
                           [bridge pickup]

=============
litgo@aol.com

#----------------------------------PLEASE NOTE---------------------------------#
#This file is the author's own work and represents their interpretation of the #
#song. You may only use this file for private study, scholarship, or research. #
#------------------------------------------------------------------------------#

Disclaimer

A note on the content here:

The files archived on this site are the respective transcriber’s own work and represent their interpretations of the songs. You may only use these files for private study, scholarship or research. more on use of files >>

Section navigation

Tablature Section

Site info Navigation

Whotabs is not affiliated with The Who, its record company or management.