Whotabs – The Definitive Online Tablature and Gear Resource for The Who since 1997

Return to Whotabs

The Rock – guitar tab

The Rock | guitar tab
By The Who
>From Quadrophenia, 1973
Written by Pete Townshend (c)1973 Fabulous Music Ltd.

#----------------------------------PLEASE NOTE---------------------------------#
#This file is the author's own work and represents their interpretation of the #
#song. You may only use this file for private study, scholarship, or research. #
#------------------------------------------------------------------------------#

Originally transcribed by
Kenny Sahr
==============                                                        
transcribed by         2001-07-03          Whotabs                    
litgo@aol.com      rev 2003-05-15          www.thewho.net/whotabs     
==============                                                        

Four electric guitars, two main lead, one rhythm, one overdub lead

Lead guitar 1 (clean): tune down 1/2 step to (Eb Ab Db F# Bb Eb)
Lead guitar 2 (overdriven): tune down 1/2 step to (Eb Ab Db F# Bb Eb)
Lead guitar 3 (overdriven): tune down 1/2 step to (Eb Ab Db F# Bb Eb)
Rhythm guitar (overdriven): tune down 1/2 step to (Eb Ab Db F# Bb Eb)
Acoustic: standard tuning, capo on 1

Horn, piano and synths arranged for guitar: tune down 1/2 step (Eb Ab Db F# Bb Eb)

Eb         (0)7999x and 022100   (acoustic: x11343)
Cm          xx6654
Db          xx0232
F#          3x0033
Ab          x02255 and x022
Bb          x2444x
B           x3555x

['Is it me' piano chords arr for gtr]
Gaug        xx6554
Abmaj7      xx7654
Cm7         x46454
Abmaj9      575657 (577xxx) or x02420

[middle solo rhythm chords]
E           x(8 10)10 10 8
E7          x(8 10)8 10 8
Am          xx(8)666
Am6         xx(8)686
Eb          x(79)997
Eb7         x(79)797
Abm         xx(9)777
Abm6        xx(0)797

['Love Reign O'er Me' implied chords]
Ebmsus4     xx1344
Ebmsus4/Db  x41344

Note: Chords listed in () are implied bass transition notes. All leads approximate.

[Fade up from 'Dr. Jimmy']

["Bell Boy" theme (Keyboard only):]
||:Eb     Cm |Db      F# |Ab      Bb |B       Db  Eb/:||x2
[piano arr for gtr]
||-----------||
||-12---12---||
||.--9----9-.||
||.---9----9.||
||-----------||
||-----------||

    |Eb     Cm |Db      F# |Ab      Bb |B       Db  Eb/|  
----|----------|-----------|-----------|---------------|
----|----------|-----------|-----------|---------------|
-9-9|9---------|-----------|-----------|------------1-1|
-9-9|9---------|-----------|-----------|------------2-2|
-7-7|7---------|-----------|-----------|------------2-2|
----|0---------|-----------|-----------|------------0-0|
[horn synth arr for gtr]                               |
----|---12-----|-----------|-----------|---------------|
----|12--------|-----------|----10-----|---------------|
----|----------|-----------|9----------|-------11------|
----|----------|-----------|-----------|---------12----|
----|----------|-----------|-----------|---------------|
----|----------|-----------|-----------|---------------|

|Eb     Cm |Db      F# |Ab      Bb |B       Db  Eb/|  
|0---------|-----------|-----------|---------------|
|0---------|-----------|-----------|---------------|
|1---------|-----------|-----------|------------9-9|
|2---------|-----------|-----------|------------9-9|
|2---------|-----------|-----------|------------7-7|
|0---------|-----------|-----------|----xxxxxx-----|
[horn synth arr for gtr]                           |
|---12-----|-----------|-----------|---------------|
|12--------|-----------|---10------|---------------|
|----------|-----------|9----------|-------11------|
|----------|-----------|-----------|---------12----|
|----------|-----------|-----------|---------------|
|----------|-----------|-----------|---------------|

[With a beat]                                  
|Eb  Cm Db|      F# Ab|      Bb B|       Db    |
|------4-2|-------3---|5---------|-------2-----|
|9-----5-3|-------3---|5---------|-------3-----|
|9-----6-2|-------0---|2------4--|5------2--9-9|
|9-----6-0|-------0---|2------4--|5------0--9-9|
|7--------|----------0|0------2-3|3---------7-7|
|0--------|-------3---|----------|----------0-0|
[horn synth arr for gtr]                       |
|---12----|-----------|----------|-------------|
|12-------|-----------|---10-----|-------------|
|---------|-----------|9---------|-----11------|
|---------|-----------|----------|-------12----|
|---------|-----------|----------|-------------|
|---------|-----------|----------|-------------|

|Eb  Cm Db|      F# Ab |      Bb B|       Db    |
|------4--|2------3-5-5|5---------|-------------|
|9-----5--|3------3-5-5|5---------|-------------|
|9-----6-2|2------0-2-2|2------4-5|5---------1-1|
|9-----6-0|-------0-2-2|2------4-5|5---------2-2|
|7--------|---------0-0|0------2-3|3---------2-2|
|0--------|-------3----|----------|-----xxxx----|
[horn synth arr for gtr]                        |
|---12----|------------|----------|-------------|
|12-------|------------|---10-----|-------------|
|---------|------------|9---------|-----11------|
|---------|------------|----------|-------12----|
|---------|------------|----------|-------------|
|---------|------------|----------|-------------|

|Eb  Cm Db|     F# Ab|      Bb B|        Db |Eb     |    Db|Eb    |   |
|0-----4-2|------3---|5---------|-----------|0------|------|0-----|---|
|0-----5-3|------3---|5---------|-----------|0------|------|0-----|---|
|1-----6-2|------0---|2------4-5|5-------7\-|1------|------|1-----|---|
|2-----6-0|------0--2|2------4-5|5-------7\-|2------|-----0|------|---|
|2--------|---------0|0------2-3|3-------5\-|2------|------|------|---|
|0--------|------3---|----------|-----------|0------|------|------|---|
[horn synth arr for gtr]                                              |
|---12----|----------|----------|-----------|-------|------|------|---|
|12-------|----------|---10-----|-----------|-------|----10|12----|---|
|---------|----------|9---------|---11------|9------|------|------|---|
|---------|----------|----------|-----12----|-------|------|------|---|
|---------|----------|----------|-----------|-------|------|------|---|
|---------|----------|----------|-----------|-------|------|------|---|

[Keyboard intro to "Is it me" theme]
|Ebsus4 / / / | / / / / |Ab / / / |Ab / / / |

["Is it me" theme]
|Abmaj7    |                 |Gaug     |G           |
|----17-16-|17-16h17p16------|---16----|------------|
|----------|-----------17-17h|19---17--|------------|
|----------|-----------------|---------|------------|
|----------|-----------------|---------|------------|
|----------|-----------------|---------|------------|
|----------|-----------------|---------|------------|

|Cm     |Cm(Bb)           |Abmaj7          |        |
|-------|17^(19)-17^(19)--|^17\-16--19^(21)|^19(21)\|
|----17-|-----------------|-------17-------|--------|
|-------|-----------------|----------------|--------|
|-------|-----------------|----------------|--------|
|-------|-----------------|----------------|--------|
|-------|-----------------|----------------|--------|

    |Eb      Cm7    |Abmaj9          |
    |--19----19-----|19--------------|
    |19^--19^---19^-|-19^-17---17-17-|
    |---------------|----------------|
    |---------------|----------------|
    |---------------|----------------|
    |---------------|----------------|
[rhythm gtr in]                      |
----|---------------|----------------|
----|--------5------|----------------|
9-9-|9-------4------|2-----------9-9-|
9-9-|9-------6------|2-----------9-9-|
7-7-|7-------4------|0-----------7-7-|
----|---------------|----------------|

|Eb                                  Cm7 |Abmaj9                        |
|16h19p16--16h19p16--16h19p16--16h19p16--|16h19p16--16h19p16--16h19p16--|
|--------17--------17--------17--------17|--------17--------17--------17|
|----------------------------------------|------------------------------|
|----------------------------------------|------------------------------|
|----------------------------------------|------------------------------|
|----------------------------------------|------------------------------|
|                                        |                              |
|----------------------------------------|------------------------------|
|--------------------------------------5-|------------------------------|
|9-------------------------------------4-|2-----------------------------|
|9-------------------------------------6-|2-----------------------------|
|7-------------------------------------4-|0-----------------------------|
|----------------------------------------|------------------------------|

|Abmaj7         |              |Gaug |G          |
|19\------------|--------------|-----|-----------|
|--------10-9-10|-9h10p9-------|-----|-----------|
|------9--------|-------9-11-9-|-----|------9--11|
|---------------|--------------|10---|-----------|
|---------------|--------------|-----|-----------|
|---------------|--------------|-----|-----------|

|Cm     |Cm(Bb) |Abmaj7    |                   |
|-----0-|-----0-|---0----0-|-0--0--0--0-----0--|
|-------|7^-----|7^---7^---|-7^-7^-7^-7^\-5p0--|
|11^----|-------|----------|-------------------|
|-------|-------|----------|-------------------|
|-------|-------|----------|-------------------|
|-------|-------|----------|-------------------|

     |Eb      Cm7|Abmaj9     |Eb       Cm7|Abmaj9       |
     |-0------0--|--0------0-|-0------0---|--0------0---|
     |--0------0-|---0------0|--0------0--|---0------0--|
     |4^-(^)4\---|4^--(^)4\--|4^-(^)4\----|4^--(^)4\--4/|
     |-----------|-----------|------------|-------------|
     |-----------|-----------|------------|-------------|
     |-----------|-----------|------------|-------------|
[rhythm gtr in]                                         |
12-12|12------9--|9-----12-12|12--------9-|9------------|
12-12|12------12-|12----12-12|12--------12|12-----------|
9--9-|9-------9--|9-----9--9-|9---------9-|9------------|
9--9-|9-------9--|11----9--9-|9---------9-|11-----------|
-----|-----------|-----------|------------|-------------|
-----|-----------|-----------|------------|-------------|

|E   |    |E         |     |                 |
|----|----|----------|-----|-----------------|
|----|----|----------|-----|-----------------|
|5---|----|----------|-----|-----------------|[lead out]
|----|----|----------|-----|-----------------|
|----|----|----------|-----|-----------------|
|----|----|----------|-----|-----------------|
|[rhythm gtr]                                |
|----|----|----------|-----|-----------------|
|----|----|-13-13-13-|13---|--13-13-13-11-10-|
|----|----|-10-10-10-|10---|--10-10-10-10-10-|
|----|----|-10-10-10-|10---|--10-10-10-10-10-|
|----|----|----------|-----|-----------------|
|----|----|----------|-----|-----------------|

                           ["Helpless dancer" horn theme; rhythm gtr out]
|E         |               |E     |     |E(D) |    |
|----------|---------------|------|-----|-----|----|
|11--10-10-|---10h11p10----|10----|-----|-----|----|
|10--10-10-|---10------h12p|10----|-----|-----|----|
|10--10-10-|---10----------|10----|-----|-----|----|
|----------|---------------|------|-----|-----|----|
|----------|---------------|------|-----|-----|----|
                           [2 horns arr for gtr]
                           |5-5-6-|8----|-----|----|
                           |-8----|-----|-----|----|
                           |------|-----|-----|----|
                           |------|-----|-----|----|
                           |------|-----|-----|----|
                           |------|-----|-----|----|

|E / / / |/ / / /|E(D) / / /|/ / / /|
[2 horns for one guitar]
|5---5-6-|8------|----------|-------|
|--8-----|-------|----------|-------|
|5-------|-------|----------|-------|
|------8-|7------|----------|-------|
|--------|-------|----------|-------|
|--------|-------|----------|-------|

|E / / / |/ / / /|D / / /|/ / / /|E / / /|/ / / /|/ / / /|/ / / /|
|5---5-6-|8------|6------|6------|8------|-------|-------|-------|
|--8-----|-------|-------|-------|-------|-------|-------|-------|
|5-------|-------|-------|-------|5------|-------|-------|-------|
|------8-|7------|8------|8------|-------|-------|-------|-------|
|--------|-------|-------|-------|-------|-------|-------|-------|
|--------|-------|-------|-------|-------|-------|-------|-------|

[Piano rhythm only; implied chords]                     x4              x2
||:E     /     E7     /    |Am    /         Am6   /    :||:E           :||
||----------6--8--6--8-----|9--8--9-8h9p8---------------||--------------||
||-10-8--10-------------6--|----------------11-10-11-8--||-10---8-10--8-||
||.------------------------|---------------------------.||.------------.||
||.------------------------|---------------------------.||.------------.||
||-------------------------|----------------------------||--------------||
||-------------------------|----------------------------||--------------||
||[piano arr for gtr]                                                   ||
||-------------------------|----------------------------||--------------||
||-------------------------|----------------------------||--------------||
||.------------------------|---------------------------.||.------------.||
||.9-----------9-----------|7---------------7----------.||.9-------9---.||
||-7-----------7-----------|7---------------7-----------||-7-------7----||
||-------------------------|----------------------------||--------------||

[drums in; rhythm gtr in, palm mute only, no chords] 
                                                x4[rhythm out]  x3           
||:E       /  E7      / |Am         /Am6      /:||:E           :||E          |
||---------6--8--6--8---|9-8-9-8h9p8------------||--------------||-----------|
||-10-8-10------------6-|------------11-10-11-8-||-10--8-h10--8-||h10--8-h10-|
||.---------------------|----------------------.||.------------.||-----------|
||.---------------------|----------------------.||.------------.||-----------|
||----------------------|-----------------------||--------------||-----------|
||----------------------|-----------------------||--------------||-----------|

[rhythm gtr on chords, palm mute]                      x3[rhyh out]    x2
||:Eb         / Eb7       /|Abm          / Abm6     / :||:Eb          :||
||[guitar 1]               |                           ||              ||
||----------5---7--5--7----|8--7-8-7h8p7---------------||--------------||
||-9--7--9---------------5-|---------------10-9-10-7---||-9---7--9---7-||
||.------------------------|--------------------------.||.------------.||
||.------------------------|--------------------------.||.------------.||
||-------------------------|---------------------------||--------------||
||-------------------------|---------------------------||--------------||
||[guitar 2]               |                           ||              ||
||-------------------------|---------------------------||--------------||
||----------7---9--7--9----|10-9-10-9h10p9-------------||--------------||
||.9--8--9---------------7-|---------------11-9--11-8-.||.9---8--9--8-.||
||.------------------------|--------------------------.||.------------.||
||-------------------------|---------------------------||--------------||
||-------------------------|---------------------------||--------------||

[drums out; rhythm in, palm mute]            x3
||:Eb   /  Eb7   / |Abm   /        Abm6   / :||
||[guitar 1]       |                         ||
||-------5-7--5-7--|8--7-8-7h8p7-------------||
||-9-7-9----------5|---------------10-9-10-7-||
||.----------------|------------------------.||
||.----------------|------------------------.||
||-----------------|-------------------------||
||-----------------|-------------------------||
||[guitar 2]       |                         ||
||-----------------|-------------------------||
||-------7-9--7-9--|10-9-10-9h10p9-----------||
||.9-8-9----------7|---------------11-9-11-8.||
||.----------------|------------------------.||
||-----------------|-------------------------||
||-----------------|-------------------------||
||[horn synth in]  |                         ||
||-------12--------|-------------------------||
||-----------------|---------------10--------||
||.9---------------|-------------------11---.||
||.----------------|------------------------.||
||-----------------|-------------------------||
||-----------------|-------------------------||

           [rhyth out]   
|Eb        |Eb        |Eb          |Eb        |
|[guitar 1]|          |            |          |
|----------|----------|------------|----------|
|9--7-9--7-|9--7-9--7-|7h9--7h9--7h|9--7h9----|
|----------|----------|------------|----------|
|----------|----------|------------|----------|
|----------|----------|------------|----------|
|----------|----------|------------|----------|
|[guitar 2]|          |            |          |
|----------|----------|------------|----------|
|----------|----------|------------|----------|
|9--8-9--8-|9--8-9--8-|8h9--8h9--8h|9--8h9----|
|----------|----------|------------|----------|
|----------|----------|------------|----------|
|----------|----------|------------|----------|
|[horn synth sustain]              |          |
|--12------|(12)------|(12)--------|(12)------|
|----------|----------|------------|----------|
|9---------|----------|------------|----------|
|----------|----------|------------|----------|
|----------|----------|------------|----------|
|----------|----------|------------|----------|

[drums in; rhythm gtr in, straight time, palm mute]        x4
||:Eb    /      Eb7   /    | Abm   /           Abm6  /    :||
||[guitar 1]               |                               ||
||----------5---7--5--7----|-8--7--8-7h8p7-----------------||
||-9--7--9---------------5-|-------------------10-9--10-7--||
||.------------------------|------------------------------.||
||.------------------------|------------------------------.||
||-------------------------|-------------------------------||
||-------------------------|-------------------------------||
||[guitar 2]               |                               ||
||----------8--10-8--10----|-12-11-12-11h12p11-------------||
||-12-10-12--------------12|-------------------13-12-13-10-||
||.------------------------|------------------------------.||
||.------------------------|------------------------------.||
||-------------------------|-------------------------------||
||-------------------------|-------------------------------||
||[guitar 3]               |                               ||
||-------------------------|-------------------------------||
||-------------------------|-------------------------------||
||.9-----------------------|-------------------11--9-11-8-.||
||.------------------------|------------------------------.||
||-------------------------|-------------------------------||
||-------------------------|-------------------------------||
||[horn synth]             |                               ||
||-------------------------|-------------------------------||
||-9-----------------------|-------------------10----------||
||.------------------------|-------------------------11---.||
||.------------------------|------------------------------.||
||-------------------------|-------------------------------||
||-------------------------|-------------------------------||

                                                           x4
||:Eb    /      Eb7   /    | Ab    /           Abm6  /    :||
||[guitar 1]                                               ||
||-----------5--7--5--7----|-9--8--9-8h9p8-----------------||
||--9--7--9---------------5|-------------------10-9--10-7--||
||.------------------------|------------------------------.||
||.------------------------|------------------------------.||
||-------------------------|-------------------------------||
||-------------------------|-------------------------------||
||[guitar 2]               |                               ||
||----------8--10-8--10----|-12-11-12-10h12p10-------------||
||-12-10-12--------------12|-------------------13-12-13-10-||
||.------------------------|------------------------------.||
||.------------------------|------------------------------.||
||-------------------------|-------------------------------||
||-------------------------|-------------------------------||
||[guitar 3]               |                               ||
||-------------------------|-------------------------------||
||-------------------------|-------------------------------||
||.9-----------------------|-------------------11--9-11-8-.||
||.------------------------|---------------11-------------.||
||-------------------------|-------------------------------||
||-------------------------|-------------------------------||
||[horn synth]             |                               ||
||-------12----------------|-------------------------------||
||-9-----------------------|--------------------10---------||
||.------------------------|-------------------------11---.||
||.------------------------|------------------------------.||
||-------------------------|-------------------------------||
||-------------------------|-------------------------------||

[rhythm gtr out]          x2
||:Eb                    :||Eb                     |Eb               |
||[guitar 1]              ||                       |     [gtr 1 out] |
||-----------5--7--5-7--5-||-----------------------|-----------------|
||-9--7--9----------------||9--7--9---7--9---------|-----------------|
||.----------------------.||-----------------------|-----------------|
||.----------------------.||-----------------------|-----------------|
||------------------------||-----------------------|-----------------|
||------------------------||-----------------------|-----------------|
||[guitar 2]              ||                       |    [pick slide] |
||----------8--10-8--10-8-||-----------------------|-----------------|
||-12-10-12---------------||12-10-12-10--12-----10-|12---------------|
||.----------------------.||-----------------------|-----------------|
||.----------------------.||-----------------------|-----------------|
||------------------------||-----------------------|-----------------|
||------------------------||-----------------------|----xxxxxxxxxxxxx|
||[guitar 3]              ||                       |     [gtr 3 out] |
||------------------------||-----------------------|-----------------|
||------------------------||-----------------------|-----------------|
||.9---------------------.||--------------------8--|9----------------|
||.----------------------.||-----------------------|-----------------|
||------------------------||-----------------------|-----------------|
||------------------------||-----------------------|-----------------|
||[horn synth]                                                       |
||---12-------------------||(12)-------------------|-----------------|
||9-----------------------||-----------------------|-----------------|
||------------------------||-----------------------|-----------------|
||------------------------||-----------------------|-----------------|
||------------------------||-----------------------|-----------------|
||------------------------||-----------------------|-----------------|

["Love Reign O'er Me" theme (Half Tempo) (6/8)]
|Ebm7/ / |/ / / |/ / / |/ / Ebm(Db)|Bmaj7 / / |/   /    Bmaj7(Bb)|
|[guitar 2]                                                      |
|--------|------|------|-----------|----------|------------------|
|--------|------|------|-----------|----------|------------------|
|--------|------|14^---|14^---(^)14|14--12----|------14^--\-14^--|
|--------|------|------|-----------|------14--|------------------|
|--------|------|------|-----------|----------|------------------|
|0-------|0-----|------|-----------|----------|------------------|

|Abm7 / / |/      /        /    |Ebm7   |                |            |
|[guitar 2]                                                           |
|----12---|15^-----12---15--12--|12-----|17-15-17-15-17^-|15-(0)------|
|---------|------15--15-------15|-------|----------------|---15~\-----|
|12-------|---------------------|-------|----------------|------------|
|--14-----|---------------------|-------|----------------|------------|
|---------|---------------------|-------|----------------|------------|
|---------|---------------------|-------|----------------|------------|

|             Ebm(Db)|Bmaj7 / /  |/   / Bmaj7(Bb)|Abm7 /  /|             |
|[guitar 2]                                                              |
|--------------------|-----------|---------------|---------|0---0-2-0-3-0|
|-------10^(12)-8----|-----------|---------------|------5-3|4^(5)-------0|
|-7^~-7----------9---|-----------|---------0h2-0h|2^(4)----|-------------|
|------------------7^|7^(9)--7-5-|---------------|---------|-------------|
|--------------------|-----------|7-5------------|---------|-------------|
|--------------------|-----------|----3~---------|---------|-------------|

[acoustic in; rapid strum flourish]
|Eb//////| % |      %       | % |       %     | % | %    |     %    |Eb    
|Eb      |   |              |   |             |   |      |          |      
|[guitar 2]                                                         |      
|0-------|---|--------------|---|-------------|---|-----<|12\10\9---|0-----
|0-------|---|---<12>-------|---|9--<12>------|---|------|----------|0-----
|1-------|---|11^----(^)11\-|9--|11^----(^)11\|9--|------|----------|------
|2-------|---|--------------|---|-------------|---|------|----------|------
|2-------|---|--------------|---|-------------|---|------|----------|------
|0-------|---|--------------|---|-------------|---|------|----------|------
|[horn synth]                                                            
|--------|---|4-----4--5----|7--|4------4--5--|7--|------|----------|------
|--------|---|---7----------|---|----7--------|---|------|----------|------
|--------|---|--------------|---|-------------|---|7-6-4-|----------|------
|6-4-6-7-|9--|--------------|---|-------------|---|-----7|9---------|------
|--------|---|--------------|---|-------------|---|------|----------|------
|--------|---|--------------|---|-------------|---|------|----------|------

[piano and strings only; acoustic fades out]
|Eb / / / | / / / / | / / / / | / / / / |

                    [drum fill]
|Eb / / / | / / / / | / / / / | / / / / ||

[Finale on "Bell Boy" theme (keyboard solo)]
||:Eb                     |                        |
||[bell synth pattern arr for guitar; repeats to end]
||-16----16-17-19-17-19-17|16----16-17-19-17-19-17-|
||----19------------------|---19-------------------|
||.-----------------------|------------------------|
||.-----------------------|------------------------|
||------------------------|------------------------|
||------------------------|------------------------|
||[horn synth arr for guitar]                      |
||-------------12---------|------------------------|
||------------------------|------------------------|
||-9----------------------|------------------------|
||------------------------|------------------------|
||------------------------|------------------------|
||------------------------|------------------------|

|                        |                       :||
|16----16-17-19-17-19-17-|15----15-17-19-17-19-17-||
|---17-------------------|---17-------------------||
|------------------------|-----------------------.||
|------------------------|-----------------------.||
|------------------------|------------------------||
|------------------------|------------------------||
|[horn synth arr for guitar]                      ||
|------------------------|------------------------||
|5-----------10----------|------------------------||
|------------------------|-------------11---------||
|------------------------|-----------------12-----||
|------------------------|------------------------||
|------------------------|------------------------||

[repeat bell synth pattern]
|    %     |      %       |      %      |  %     |
|[horn synth arr for guitar]                     |
|----12---|---------------|-------------|--------|
|---------|---------------|5-------10---|--------|
|9--------|---------------|-------------|----11--|
|---------|---------------|-------------|------12|
|---------|---------------|-------------|--------|
|---------|---------------|-------------|--------|
|[wah synth arr for guitar]                      |
|---------|---------------|-------------|--------|
|--<12-<12|10-8-5---------|------12--12-|10-8-5--|
|---------|---------------|-------------|--------|
|---------|---------------|-------------|--------|
|---------|---------------|-------------|--------|
|---------|---------------|-------------|--------|

[guitar in, with bell synth pattern as above]                 
    |Eb  Cm Db|       F# Ab|      Bb  B|     (Db)    |
    |[guitar]
----|------4-2|-------3----|-----------|-------------|
----|9-----5-3|-------3----|-----------|-------------|
-9-9|9-----6-2|-------0-0-2|------4-4/5|------\--/--9|
-9-9|9-----6-0|-------0-0-2|------4-4/5|------\--/--9|
-7-7|7--------|-----------0|------2-2/3|------\--/--7|
----|0--------|-------3-3--|-----------|-------------|
    |                                [depress vibrato]
    |[wah synth arr for guitar]                      |
----|---------|------------|-----------|-------------|
----|-12-14-12|14--12------|--12--12-10|-8-5~--------|
----|---------|------------|-----------|-------------|
----|---------|------------|-----------|-------------|
----|---------|------------|-----------|-------------|
----|---------|------------|-----------|-------------|
    |[horn synth arr for guitar; repeat]             |
----|----12---|------------|-----------|-------------|
----|---------|------------|5-----10---|-------------|
----|9--------|------------|-----------|--------11---|
----|---------|------------|-----------|----------12-|
----|---------|------------|-----------|-------------|
----|---------|------------|-----------|-------------|

|Eb  Cm Db|       F# Ab|      Bb  B|        Db|
|------4-2|-------3----|-----------|----------|
|9-----5-3|-------3----|-----------|----------|
|9-----6-2|-------0-0-2|------4-4/5|--------7\|
|9-----6-0|-------0-0-2|------4-4/5|--------7\|
|7--------|-----------0|------2-2/3|--------5\|
|0--------|-------3-3--|-----------|----------|
|[wah synth arr for guitar]                   |
|----19-17|------------|-----19-19-|17-15-----|
|--17-----|17----------|<17--------|-----17---|
|---------|------------|-----------|----------|
|---------|------------|-----------|----------|
|---------|------------|-----------|----------|
|---------|------------|-----------|----------|
|[horn synth arr for guitar]                  |
|---12----|------------|-----------|----------|
|---------|------------|5-----10---|----------|
|9--------|------------|-----------|------11--|
|---------|------------|-----------|--------12|
|---------|------------|-----------|----------|
|---------|------------|-----------|----------|

|Eb    Cm Db|       F# Ab|      Bb  B|        Db    |
|------4---2|-------3----|-----------|--------2-2-2-|
|0-----5---3|-------3----|-----------|--------3-3-3-|
|1-----6---2|-------0-0-2|------4-4-5|--------2-2-2-|
|2-----6---0|-------0-0-2|------4-4-5|--------0-0-0-|
|2----------|-----------0|------2-2-3|--------------|
|0----------|-------3-3--|-----------|--------------|
|[wah synth arr for guitar]                         |
|-----------|------------|-----------|--------------|
|--<12-<12--|10-8-5~-----|---<12-<12-|10-8--5~------|
|-----------|------------|-----------|--------------|
|-----------|------------|-----------|--------------|
|-----------|------------|-----------|--------------|
|-----------|------------|-----------|--------------|
|[horn synth arr for guitar]                        |
|---12------|------------|-----------|--------------|
|-----------|------------|5-----10---|--------------|
|9----------|------------|-----------|----------11--|
|-----------|------------|-----------|------------12|
|-----------|------------|-----------|--------------|
|-----------|------------|-----------|--------------|

|Eb           |              |Ebm     
|-------------|--------------|--------
|0------------|--------------|--------
|1------------|--------------|--------
|2------------|--------------|--------
|2------------|--------------|--------
|0------------|---xxxxxxxxxx-|--------
|[wah synth arr for guitar]           
|-------------|--------------|--------
|--<12-<12-<10|-12-----------|--------
|-------------|--------------|--------
|-------------|--------------|--------
|-------------|--------------|--------
|-------------|--------------|--------
|[horn synth arr for guitar]          
|---12--------|--------------|15------
|-------------|--------------|--------
|9------------|--------------|--------
|-------------|--------------|--------
|-------------|--------------|--------
|-------------|--------------|--------



[fade to rain and thunder sounds]
=============
litgo@aol.com

#----------------------------------PLEASE NOTE---------------------------------#
#This file is the author's own work and represents their interpretation of the #
#song. You may only use this file for private study, scholarship, or research. #
#------------------------------------------------------------------------------#

Disclaimer

A note on the content here:

The files archived on this site are the respective transcriber’s own work and represent their interpretations of the songs. You may only use these files for private study, scholarship or research. more on use of files >>

Section navigation

Tablature Section

Site info Navigation

Whotabs is not affiliated with The Who, its record company or management.