Whotabs – The Definitive Online Tablature and Gear Resource for The Who since 1997

Return to Whotabs

Sea and Sand – guitar tab

Sea and Sand | guitar tab
By The Who
>From Quadrophenia, 1973
Written by Pete Townshend (c)1973 Fabulous Music Ltd. 

#----------------------------------PLEASE NOTE---------------------------------#
#This file is the author's own work and represents their interpretation of the #
#song. You may only use this file for private study, scholarship, or research. #
#------------------------------------------------------------------------------#

==============                                                        
transcribed by         1997-07-27          Whotabs                    
litgo@aol.com      rev 2002-03-19          www.thewho.net/whotabs     
==============    rev2 2012-09-13                                     

guitar 1: acoustic
guitar 2: electric - rhythm
guitar 3: electric w/volume pedal - leads
guitar 4: electric w/volume pedal - overdub lead

Asus2  x02200
D      xx0232
E      022400 and 022100
G      3tx0033 (use thumb)
C      x32013
G/B    x20030 and x20010
Am     x02210
Fmaj7  1tx3210 (use thumb)
Em     022000
Dsus4  xx0233
Dsus2  xx0230
A      x022xx
A/G    3x22xx
D/A    x0423x
A5     x02255

[intro]
[0:15]
|Asus2           |Asus2            |Asus2          |Asus2            |
|[gtr 1 - acoustic]                                                  |
|---0*-0---0*--0*|----0*-0---0*----|--0*-0---0*--0*|----0*-0-------0*|
|--------0-------|---------0-----0*|-------0-----0-|---------0-0-----|
|-2----------2---|--2----------2---|-2---------2---|--2----------2---|
|----------------|-----------------|---------------|-----------------|
|0---------------|0----------------|0--------------|0----------------|
|----------------|-----------------|---------------|-----------------|
|[* pluck w/middle finger]                                           |
|                                                                    |
|[gtr 2 - electric]                                                  |
|---0*-0---0*--0*|----0*-0---0*--0*|--0*-0---0*----|----0*-0---0*----|
|--------0-------|---------0-------|-------0-----0*|---------0-----0*|
|-2----------2---|--2----------2---|-2---------2---|--2----------2---|
|----------------|-----------------|---------------|-----------------|
|0---------------|0----------------|0--------------|0----------------|
|----------------|-----------------|---------------|-----------------|
|[* pluck w/middle finger]                                           |
|                                                                    |
|[gtr 3]                                                             |
|----------------|-------<12-------|---------------|-------<12-------|
|--<14-----------|<-15---------<12-|<14------------|<15-----------<12|
|----------------|-----------------|---------------|-----------------|
|----------------|-----------------|---------------|-----------------|
|----------------|-----------------|---------------|-----------------|
|----------------|-----------------|---------------|-----------------|
  [vol. pedal swells]


|Asus2              |Asus2  |Asus2               |Asus2                      |
 Here by the sea and sand    nothing ever goes as planned,    I just couldn't 
|[gtr 1]                                                                     |
|-------0---0-------|-------|------0-------------|------0---0----------------|
|---------0------0--|-------|--------0-0----0----|--------0------------------|
|----9---------9----|----%--|----9--------9------|----9--------9-------------|
|--7----------------|-------|--7-------(7)-------|--7------------------------|
|0------------------|-------|0-------------------|0--------------0-----------|
|-------------------|-------|--------------------|---------------------------|
|[gtr 2]                                                                     |
|----0*-0---0*------|-------|--------------------|----0*-0---0*--------------|
|---------0------0*-|-------|--------------------|---------0-----------------|
|--2-----------2----|----%--|---------%----------|--2-----------2-0----------|
|-------------------|-------|--------------------|---------------------------|
|0------------------|-------|--------------------|0--------------------------|
|-------------------|-------|--------------------|---------------------------|
|[gtr 3]                                                                     |
|-------------------|<12-<17|<12-----------------|---------------------------|
|<14----------------|-------|--------------------|<14------------------------|
|-------------------|-------|--------------------|---------------------------|
|-------------------|-------|--------------------|---------------------------|
|-------------------|-------|--------------------|---------------------------|
|-------------------|-------|--------------------|--------------10\----------|


|D    D         |E   E              |A             |Asus4 A     |
 face going home,      It was just a drag on my own.             
|[gtr 1]                                                        |
|D    D         |E   E              |A             |Asus4 A     |
|[gtr 2]                                                        |
|2----2--------0|-------------------|--------------|------------|
|3----3--------0|-------------------|3-------------|3-3---------|
|2----2---------|----4--------------|2-2-----------|2-2--2------|
|0----0---------|2-0-2--------------|2-2-----------|4-4--2------|
|---------------|2-0-2------------0-|--0-----------|0-0--0------|
|---------------|0-0-0--------------|--------------|------------|
|[gtr 3]                                                        |
|2~-------------|0~-----------------|5-------------|-------5----|
|3~-------------|0~-----------------|5---------5---|5------5----|
|2~-------------|4~-----------------|2---------4^--|4^\-2--2----|
|0--------------|2~-----------------|2-------------|------------|
|---------------|2~---------------0-|0-------------|------------|
|----------10\-0|0~-----------------|--------------|------------|


    |Asus2           |Asus2           |Asus2           |Asus2                   |
They finally threw me out,          my mom got drunk on stout,    My dad couldn't
    |[gtr 1]                                           |                        |
----|------0---0-----|-------0--------|------0---------|------0-----------------|
----|--------0-----0-|---------0-0----|--------0-0---0-|--------0-0-------------|
----|----9-----------|----9--------9--|----9-------9---|----9-------------------|
----|--7---------7---|--7-------------|--7-------------|--7----------7----------|
----|0---------------|0---------------|0---------------|0--------------7--------|
----|----------------|----------------|----------------|------------------------|
    |[gtr 2]                                           |                        |
----|---0*-0---0*----|----0*-0---0*---|--0---0---0-----|--0---0---0-------------|
----|--------0-----0*|---------0-----0|----0---0-----0-|----0---0---------------|
----|-2----------2---|--2----------2--|------------2---|-------------2-0--------|
----|----------------|----------------|----------------|------------------------|
----|0---------------|0---------------|0---------------|0-----------------------|
----|----------------|----------------|----------------|------------------------|
    |[gtr 3]                                           |                        |
----|----------------|----------------|----------------|----<17-----------------|
----|----------------|--<12----<14----|<15-------<17---|--------(17)------------|
----|----------------|----------------|----------------|------------------------|
----|----------------|----------------|----------------|------------------------|
----|<0~-------------|----------------|----------------|-------------12\--------|
----|----------------|----------------|----------------|-------------12\--------|

[:45]
|D     D           |E   E                  A |As4 A  D/A D/A |
 stand on two feet      as he lectured about morality         
|[gtr 1]                                                     |
|D     D          E|E   E                  A |As4 A  D/A D/A |
|[gtr 2]                                                     |
|2-----2--------0--|-------------------------|---------------|
|3-----3--------0--|----0--------------------|3---------3-3--|
|2-----2--------4--|----4--------------------|2-2-----2-2-2--|
|0-----0--------2--|2-0-2------------------x-|2-2-----4-4-4--|
|------------------|2-0-2------------------x-|0-0-----0-0-0--|
|------------------|0-0-0--------------------|---------------|
|[gtr 3]                                                     |
|2-----2-----------|-------------------------|---5-----------|
|3-----3-----------|-------------------------|---5-----------|
|2-----2-----------|-------------------------|---2---4^\-2---|
|0-----0-----------|-----2------2--0---------|---2--------4--|
|------------------|----------------------3^-|0--0-----------|
|------------------|0-3^----3^-------3^------|---------------|


|A                     |D   D            E |E   E                 |
    And now I guess the family's complete          with me hanging 
|[gtr 1]                                                          |
|A                     |D   D              |E   E                 |
|[gtr 2]                                                          |
|----------------------|2---2--------------|0---0-----------------|
|3-3-2----3--2---------|3---3--------------|0---0-----------------|
|2-2-2----2--2---------|2---2--------------|4---4-----------------|
|4-4-2----2--2---------|0---0--------------|2---2-----------------|
|0-0-0----0--0-----0---|-------------------|2---2-----------------|
|----------------------|-----------------0-|0---0-----------------|
|[gtr 3]                                                          |
|----------------------|----2---------2-0-0|----------------------|
|2-----5---------------|----3------h3-----0|----------------------|
|2-----2---------------|----2--------------|---4------------------|
|------2-----------2---|0---0--------------|2--2------------------|
|----0-------0--/4-----|-------------------|2--2-----------2-4-2-0|
|----------------------|-------------------|0----------2h4--------|


                        [2/4]       [4/4]             
|G            D         |D          |A      |        |
'round on the streets or here on the beach.           
|[gtr 1]                                             |
|G            D         |D          |A      |        |
|[gtr 2]                            |                |
|3------------2---------|2----------|-------|--------|
|3------------3---------|3----------|-------|--------|
|0------------2---------|2----------|2------|--------|
|0------------0---------|0----------|2------|--------|
|-----------------------|-----------|0------|--------|
|3----------------------|-----------|-------|--------|
|[gtr 3]                            |                |
|3------------2---------|5----------|-------|--------|
|3------------3---------|-----------|-------|--------|
|0------------2---------|4^\--------|2-~----|--------|
|0------------0---------|-----------|2-~----|--------|
|-----------------------|-----0-----|0-~----|--------|
|3----------------------|-----------|-------|--------|


[1:04]
|C (C6)         |G/B            |Am              |Am              |
      The girl I love                is a perfect dresser          
|[gtr 1]                                                          |
|-------0-------|------0--------|------0---------|----------0-----|
|----10--10-----|----10-10------|--------0---0---|------------0---|
|---9------9---0|--9-------9---0|----9-----9-----|--9-----9-----0-|
|10---------10--|9-----------9--|--7-------------|7-----7---------|
|---------------|---------------|0---------------|----0-----------|
|---------------|---------------|----------------|----------------|
|[gtr 2]                                                          |
|-------3-------|------0--------|------0---------|------0---------|
|-----1---1-----|----1---1------|----1---1-------|----1---1-------|
|---0------0--0-|--0-------0---0|--2-------2---2-|--2-------2---0-|
|-----------2---|------------0--|------------2---|----------------|
|3--------------|2--------------|0---------------|0---------------|
|---------------|---------------|----------------|------------3---|
|[gtr 3; tacit]                                                   |
|---------------|---------------|----------------|----------------|


|Fmaj7          |Em             |D            |D               |
     Wears every fashion gets it to the tee                     
|[gtr 1]                                                       |
|------0--------|------0--------|------5---5--|--------5-------|
|----8----8-----|----8---8------|----7--7----7|------7---7-----|
|--10------10--0|--9-------9--0-|--7------7---|7---7-------7---|
|10----------10-|9-----------9--|0------------|--0-----------0-|
|---------------|---------------|-------------|----------------|
|---------------|---------------|-------------|----------------|
|[gtr 2]                                                       |
|               |               |           Dsus4   D Dsus2 D  |
|-----0---------|------0--------|------2------|3----2---0---2--|
|----1--1-------|----0---0------|----3---3----|3----3---3---3--|
|--2------2---2-|--0-------0---0|--2------2---|2----2---2----3-|
|-----------3---|---------------|0----------0-|0----0---0------|
|---------------|---------------|-------------|----------------|
|1(t)-----------|0-----------0--|-------------|----------------|
|[gtr 3; tacit]                                                |

[1:20]
|C(6)          |G/B         |Am             |Am             |
      Heavens  above,            I've got to match her       
|[gtr 1]                                                    |
|-------0------|--------0---|------0--------|------0--------|
|----10--10----|------10-10-|--------0------|-----0--0------|
|---9------9--0|-----9-----9|-----9----9----|9---9-----9----|
|10---------10-|x-x-9-------|0---7-------7--|-----------7\--|
|--------------|------------|--0------------|--0------------|
|--------------|------------|---------------|---------------|
|[gtr 2]                                                    |
|------3-------|----0-------|----0----------|----0----------|
|----1---1-----|---3-3------|---1--1--------|---1--1--------|
|--0-------0--0|--0---0----0|--2-----2---2--|--2----2--0----|
|------------2-|------------|----------2----|---------------|
|3-------------|2-------0h2-|0--------------|0--------------|
|--------------|------------|---------------|---------3-----|
|[gtr 3]                                                    |
|--------------|------------|---------------|---------------|
|---5-<7-------|8----<10p8--|---<10-<12--<13|-------<15-<17-|
|--------------|-----------9|---------------|---------------|
|--------------|------------|---------------|---------------|
|--------------|------------|---------------|---------------|
|--------------|------------|---------------|---------------|


   |Fmaj7             |Em              |D           |
She knows just how she wants her man to be           
   |[gtr 1]                                         |
---|--------0---------|--------0-------|--5----5---5|
---|------8----8------|------8---8-----|--7----7---7|
---|----10------10----|----9-------9---|--7----7---7|
---|0-10-----------10-|0-9-----------0-|0----0---0--|
---|------------------|----------------|------------|
---|------------------|----------------|------------|
   |[gtr 2]                                         |
---|------0-----------|------0---------|---2------3~|
---|----1---1---------|----0---0-------|--3--3----3~|
---|--2-------2---0---|--0-------0---0-|-2----2---2~|
---|------------3-----|------------2---|0------0--0~|
---|------------------|----------------|----------0-|
---|1(t)--------------|0---------------|------------|
   |[gtr 3]                                         |
---|------------------|----------------|------------|
---|<13-----------<15-|<10---<8--------|<10---------|
---|------------------|----------------|------------|
---|------------------|----------------|------------|
---|------------------|----------------|------------|
---|------------------|----------------|------------|


|Dsus4 D         |D  Dsus4        |    G G G D   |
      Leave it to me                              
|[gtr 1]                                         |
|---5----5-----10|----------------|----3-3-3-2---|
|---7----7-----7-|----------------|----3-3-3-3---|
|---7----7-----7-|----------------|----0-0-0-2---|
|0-----0---0-0-0-|----------------|----0-0-0-0---|
|----------------|----------------|--------------|
|----------------|----------------|----3-3-3-----|
|[gtr 2]                                         |
|Dsus4        D D|D        Dsus4  |  Dsus4       |
|~------------2-2|2------------3--|---3---3------|
|~------------3-3|3----------x-3--|---3---3------|
|~------------2-2|2----------x-2--|---2---2------|
|~------------0-0|0----------x-0--|---0---0------|
|----------------|----------------|--------------|
|----------------|----------------|--------------|
|[gtr 3]                                         |
|-------------12-|----------------|------3---2---|
|----------12^---|12^-12^\p10-----|------3---3---|
|----------------|----------------|------0---2---|
|----------------|----------------|------0---0---|
|----------------|----------------|----------0--0|
|----------------|---------------\|10------------|
|[gtr 4]                                         |
|----------------|---------------2|--------------|
|----------------|---------------3|--------------|
|----------------|---------------2|--------------|
|----------------|--------------0-|--------------|
|----------------|----------------|--------------|
|----------------|----------------|--------------|


[1:37]
  |A  A/G     A   A/G A  |A      G G G       D      |
My jacket's gonna be  cut slim and checked, maybe a  
  |[gtr 1]                                          |
--|----------------------|-------3-3-3-------2------|
--|----------------------|-------3-3-3-------3------|
--|2--x---2-2-----x---2--|-------0-0-0-------2------|
--|2--x---2-2-----x---2--|-x-x-x-0-0-0-------0------|
--|0------0-0---------0--|-x-x-x--------------------|
--|---3-----------3------|-------3-3-3--------------|
  |[gtr 2]                                          |
--|----------------------|-------3-3-3-------2------|
--|----------------------|-------3-3-3-------3------|
--|2----2-2----2-----2---|-------0-0-0-------2------|
--|2----2-2----2-----2---|-------0-0-0-------0------|
--|0--x-0-0--x-0--x--0---|x-------------------------|
--|---3------3----3------|3----------3--------------|
  |[gtr 3]                                          |
--|5---------------------|--------------------------|
--|5---------------------|--------------------------|
--|2---------------2~----|-----------0-------2------|
--|2---------------------|-----------0---0---0------|
--|0------------3^-----3^|\p0------------0-----0----|
--|----------------------|-----3--------------------|


|A  A/G     A     A/G  A    |A   G G G    D       |
Touch of seersucker with an open neck, I ride a    
|[gtr 1]                                          |
|---------------------------|----3-3-3----2-------|
|---------------------------|----3-3-3----3-------|
|2---x--2---2-----x---2---2-|2-x-0-0-0----2-------|
|2---x--2---2-----x---2---2-|2-x-0-0-0----0-------|
|0------0---0---------0---0-|0-x------------------|
|----3------------3---------|----3-3-3------------|
|[gtr 2]                                          |
|---------------------------|--------3----2-------|
|---------------------------|--------3----3-------|
|2---2--2--2------2---2-----|x-2-0-0-0----2-------|
|2---2--2--2------2---2-----|x-2-0-0-0----0-------|
|0------0--0------0---0--x--|x-0------------------|
|----3^-------3^----3^---x--|--------3------------|
|[gtr 3]                                          |
|---------------------------|---------------------|
|---------------------------|---------------------|
|----2-------------2--------|-------------------2-|
|----2-------2-----2--------|--2---2--2--2-2--4---|
|3^----------0-3^-----3^-0--|--0---0--4--0-0------|
|---------------------------|3^--3^---------------|


|A    A/G A     A/G A|A      G G G   D        |
 G.S. scooter with my hair cut neat, I wear my 
|[gtr 1]                                      |
|A    A/G A    A/G A |A      G G G    D       |
|--------------------|-------3-3-3----2-------|
|--------------------|-------3-3-3----3-------|
|2--x---2-2----x---2-|-------0-0-0----2-------|
|2--x---2-2----x---2-|-------0-0-0----0-------|
|0------0-0--------0-|------------------------|
|---3----------3-----|-------3-3-3------------|
|[gtr 2]                                      |
|5-------------------|-------3-3-3----2-------|
|5-------------------|-------3-3-3----3-------|
|2--x---2-2----2---2-|----2--0-0-0----2-------|
|2--x---2-2----2---2-|----2--0-0-0----0-------|
|0------0-0--------0-|----0-------------------|
|---3^---------3^----|0-3^-------3------------|
|[gtr 3]                                      |
|------5-----5-----5-|--5---5-----------------|
|----0-----0-----0---|------------------------|
|~---4^----4^----4^--|4^--4^----4^\---4-2--2--|
|--------------------|-------------------4----|
|--------------------|------------------------|
|--------------------|------------------------|


|A   A/G A  A/G  A  |A                    |
 Wartime coat in the wind and sleet.       
|[gtr 1]                                  |
|A   A/G A  A/G  A  |A                    |
|-------------------|---------------------|
|-------------------|---------------------|
|2--x--2-2-------2--|---------------------|
|2--x--2-2-------2--|---------------------|
|0-----0-0-------0--|---------------------|
|---3---------3-----|---------------------|
|[gtr 2]                                   
|-------------------|---------------------|
|-------------------|---------------------|
|2-----2-2-------2--|---------------------|
|2-----2-2-------2--|---------------------|
|0-----0-0-------0--|---------------------|
|---3^--------3-----|---------------------|
|[gtr 3]                                   
|-------------------|-------------3---2---|
|---x---------------|-------------3---3---|
|---x---------2----2|----2--------x---2---|
|2--x-x-------2-x--2|x---2-x------x---x---|
|0--0-x--0----0-x--0|x---0-x--------------|
|-----3---------3---|3-----3---3^---------|

[1:52]
|C(6)            |G/B             |Am                  |Am                |
      I see her dance                        across the ballroom           
|[gtr 1]                                                                  |
|-------0--------|------0---------|------0-------------|------0-----------|
|----10--10------|---10---10------|--------0-----------|--------0---------|
|---9-------9----|--9-------9---0-|----9-----9---9-----|----9-----9-----0-|
|10----------10--|9-----------9---|--7---------7-------|--7---------7-----|
|----------------|----------------|0-------------------|0-----------------|
|----------------|----------------|--------------------|------------------|
|[gtr 2]                                                                  |
|-------3--------|------3---------|------0-------------|------------------|
|-----1---1------|----1---1-------|----1---1-3---------|---3-----1--------|
|---0-------0---0|--0-------0---0-|--2-----------2-----|---2---------2----|
|----------------|----------------|--------------------|------------------|
|3-----------0h2-|2----------0h2--|0------------0------|0-----0----0--0---|
|----------------|----------------|--------------------|----------------3-|
|[gtr 3]                                                                  |
|----------------|----------------|--------------------|------------------|
|<5--------------|--<8--<10-------|<10-----<-15-<13-<10|------------------|
|<0--------------|----------------|--------------------|------------------|
|----------------|----------------|--------------------|------------------|
|----------------|----------------|--------------------|------------------|
|----------------|----------------|--------------------|------------------|
|[gtr 4]                                                                  |
|----------------|----------------|--------------------|<5----------------|
|----------------|----------------|<1------------------|<5----------------|
|<0--------------|<-0-------------|<2------------------|<5----------------|
|<2--------------|<-0-------------|<2------------------|<7----------------|
|<3--------------|<-2-------------|<0------------------|<0----------------|
|----------------|----------------|--------------------|------------------|


|Fmaj7             |Em              |D          D|D                  |
 U.V. lights making starshine of her smile.                           
|[gtr 1]                                                             |
|------0-----------|------0---------|---5----5---|2---0-2---2--------|
|----8----8--------|----8---8-------|---7----7---|3-----3---3--------|
|--10------10---0--|--9-------9---9-|------------|2-----2------------|
|10----------10----|9-----------9---|0-0--0-0-0-0|--0-0-0-0---0-0----|
|------------------|----------------|------------|-------------------|
|------------------|----------------|------------|-------------------|
|[gtr 2]                                   Ds4 D   Dsus2 D           |
|------0-----------|-----0----------|------3---2-|---0---2-----------|
|----1--1----------|----0--0--------|------3---3-|---3---3-----------|
|--2-----2---2-----|--0------0---0--|------2---2-|---2---2-----------|
|------------------|-----------2----|0-----0---0-|---0---0-----------|
|----------3-------|----------------|------------|-------------------|
|1(t)--------------|0----------0----|------------|-------------------|
|[gtr 3]                                                             |
|------------------|----------------|---------10-|---10------10------|
|<15---<13------<10|p8---------<10--|<10------10-|---10------10------|
|------------------|----------------|------------|---9^--------------|
|------------------|----------------|------------|-------------------|
|------------------|----------------|------------|-------------------|
|------------------|----------------|------------|-------------------|
|[gtr 4]                                                             |
|------------------|----------------|------------|-------------------|
|<1----------------|<0--------------|3-----------|-------------------|
|<2----------------|<0--------------|2------7^\--|-------------------|
|<3----------------|<2--------------|0---------9^|p7-----------------|
|<3----------------|<2--------------|------------|-------------------|
|<1----------------|<0--------------|------------|-------------------|


|C(6)            |G/B             |Am              |Am                 |
         I am the Face,             she has to know me,        (I'm)
|[gtr 1]                                                               |
|-------0--------|------0---------|------0---------|------0------------|
|----10--10------|----10--10------|--------0-------|--------0----------|
|---9------9---0-|--9-------9---0-|----9-----9--9--|----9-----9---0----|
|10---------10---|9-----------9---|--7--------7----|--7---------7------|
|----------------|----------------|0---------------|0------------------|
|----------------|----------------|----------------|-------------------|
|[gtr 2]                                                               |
|-------3--------|------0---------|------0---------|------0------------|
|-----1---1------|----3---3-------|----1---1-------|----1---1----------|
|---0------0---0-|--0-------0---0-|--2-------2---2-|--2-------2--------|
|------------2---|----------------|------------2---|-------------------|
|3---------------|2----------0h2--|0---------------|0------------------|
|----------------|----------------|----------------|----------------3-1|
|[gtr 3]                                                               |
|----------------|----------------|----------------|-------------------|
|----------------|----------------|----------------|-------------------|
|<14----<12------|<9-------<7----<|9---------------|----------<9--<7-<5|
|----------------|----------------|----------------|-------------------|
|----------------|----------------|----------------|-------------------|
|----------------|----------------|----------------|-------------------|


   |Fmaj7                 |Em              |D               |
I'm dressed up better than anyone  within a mile.            
   |[gtr 1]                                                 |
---|--------0-------------|------0---------|----------------|
---|------8----8----------|----8---8-------|----------------|
---|----10-------10--9----|9-9-------9-----|----------------|
---|--10-------------10---|9-----------0---|----------------|
---|----------------------|----------------|----------------|
---|----------------------|----------------|----------------|
   |[gtr 2]                                                 |
---|0~---------------0----|0~--------------|2--------3-3-3-3|
---|1~---------------1----|0~----------0---|3--------3-3-3-3|
---|2~---------------2----|0~----------0---|2--------2-2-2-2|
---|3~---------------3----|2~----------0---|0--------0-0-0-0|
---|3~---------------3----|2~----------0---|----------------|
---|1(t)~------------1----|0~----------0---|----------------|
   |[gtr 3]                                                 |
---|----------------------|----------------|----------------|
---|----------------------|----------------|----------------|
---|<7--<4---<5--------<2-|--<2----0-------|2---------------|
---|----------------------|----------------|----------------|
---|----------------------|----------------|----------------|
---|----------------------|----------------|----------------|


|D            |D               |D       G   D    |
         Whoa, yeah                               
|[gtr 1]                                         |
|222----------|2-------2-2-3-3-|2-------3---2----|
|332----------|3-------3-3-3-3-|3-------3---3----|
|223%%%%%%%%%-|2-------2-2-2-2-|2-------0---2----|
|000----------|0-------0-0-0-0-|0-------0---0----|
|-------------|----------------|-----------------|
|-------------|----------------|--------3--------|
|[gtr 2]                                         |
|3-----3--3--3|--3----------3-3|2----------------|
|3-----3--3--3|--3----------3-3|3-------------3--|
|2-----2--2--2|--2----------2-2|2-------------2--|
|0-----0--0--0|--0----------0-0|0-------------0--|
|-------------|----------------|-----------------|
|-------------|----------------|-----------------|
|[gtr 3]                                         |
|---10--------|10--10--10-10---|---10--10-10-----|
|---10--10--10|10--10--10-10-10|---10--10-10-----|
|---9^--9^--9^|9^--9^--9^-9^-9^|\--7---------x-x-|
|-------------|----------------|-------9-----x-x-|
|-------------|----------------|----------10-x-x-|
|-------------|----------------|-----------------|

[2:25]
  |A    A/G A     A/G  A     |A        A A G     D        |
So how come the other tickets look much better?  Without a 
  |[gtr 1]                                                |
  |A    A/G A     A/G  A     |A            G     D        |
  |[gtr 2]                                                |
--|5-------------------------|-------------3-----2--------|
--|5-------------------------|-------------3-----3--------|
--|2---2---2--2--2---2--2----|2--2---2-----0-----2--------|
--|2---2---2--2--2---2--2----|2--2---2-----0-----0--------|
--|0-------0-----0------0----|---0------------------------|
--|----3------3------3-------|3------3-----3--------------|
  |[gtr 3]                                                |
--|5~---------------------9~-|----9\----------------------|
--|5~--------------------10~-|---10\-------8-----7^-------|
--|2~---------------------9~-|----9\-------7-----7^-------|
--|2~------------------------|--x----------9-----7^-------|
--|0~------------------0-----|--x-------------0-----------|
--|--------------------------|----------------------------|


|A    A/G A  A/G  A    |A            A A G    D   |
 penny to spend    they dress to the letter     and
|[gtr 1]                                          |
|A    A/G A  A/G  A    |A            A A G    D   |
|[gtr 2]                                          |
|----------------------|----------------3-3---2---|
|----------------------|----------------3-3---3---|
|2---2--2------2--2----|2--2---2--------0-0---2---|
|2---2--2------2--2----|2--2---2--------0-0---0---|
|0------0---------0----|---0----------------------|
|----3---------3-------|3------3--------3-3-------|
|[gtr 3]                                          |
|---5------------------|--------------------------|
|---5---x--------------|--------------------------|
|---2---x--------------|-----------2-0------------|
|2--2---x--------------|--------------------------|
|0------x--------------|-------3^---------3^p0----|
|----------------------|----------------------3^~~|


|A    A/G A    A/G   A    |A         A A G  D    |
 How come the girls come on, oh, so cool          
|[gtr 1]                                         |
|A    A/G A    A/G   A    |A         A A G  D    |
|[gtr 2]                                         |
|-------------------------|-------------3-3--2---|
|-------------------------|-------------3-3--3---|
|2---2--2------2--2-------|2--2---2-----0-0--2---|
|2---2--2------2--2-------|2--2---2-----0-0--0---|
|0------0---------0-------|---0------------------|
|----3---------3----------|3------3-----3-3------|
|[gtr 3]                                         |
|---5~--------------------|-------------3--------|
|---5~--------------------|-----x-x-x-x-3-x-3----|
|---2~--------------------|-----x-x-x-x-0-x-2----|
|2--2~--------------------|-x---x-x-x-2-0-x-0--0-|
|0------------------------|0----------0--------0-|
|-------------------------|-------------3--------|


   |A    A/G A    A/G  A    |A                        |
Yet when you meet 'em, every one's a fool?             
   |[gtr 1]                                           |
   |A    A/G A    A/G  A    |A                        |
   |[gtr 2]                                           |
---|------------------------|-------------------------|
---|------------------------|-------------------------|
---|2---2--2-2----------2--2|-------------------------|
---|2---2--2-2----------2--2|-------------------------|
---|0------0-0-------------0|-------------------------|
---|----3---------------3---|-------------------------|
   |[gtr 3]                                           |
---|------------------------|-------------------------|
---|------------------------|-------------------------|
---|--2-~-----(0)-----------|-------------------------|
---|------------------------|-------------------------|
---|3^----------------------|-------------------------|
---|------------------------|-------------------------|

[2:41]
|Asus2               |Asus2     |Asus2         |Asus2                    |
    Come sleep on the beach,     keep within my reach      I just want to 
|[gtr 1]                                                                 |
|-------0-----0------|----------|--------------|-------0-----------------|
|----------0-------0-|----------|--------------|---------0-0-0-----------|
|----9-----------9---|----%-----|------%-------|----9--------------------|
|--7-------------7---|----------|--------------|--7----------7\----------|
|0-------------------|----------|--------------|0----------------0-------|
|--------------------|----------|--------------|-----------------0-------|
|[gtr 2]                                                                 |
|-----0-0--------0-0-|-0-0-0-0--|--0--0---0----|--0---0---0--------------|
|-------------0------|--0-0---0-|----0--0-----0|----0---0-----0----------|
|--2-------2---------|----------|-----------2--|------------2------------|
|--------------------|----------|--------------|-------------------------|
|0-------------------|0---------|0-------------|0------------------------|
|--------------------|----------|--------------|-------------------------|
|[gtr 3]                                       |                         |
|--------------------|----------|--------------|--------------------0----|
|--------------------|----------|--------------|--------17-----14--------|
|--------------------|----------|--------------|---16s18--16s14--14------|
|--------------------|----------|--------------|-------------------------|
|--------------------|----------|--------------|-------------------------|
|--------------------|----------|--------------|---------------------2^-0|


|D    D         E|E  E              |A       D/A  |A                 |
 die with you near    I'm feeling so high with you here.              
|[gtr 1]                                                             |
|2----2----------|------------------|-------------|------------------|
|3----3----------|0--0----------3-3-|3--2-----3---|3-2---------------|
|2----2----------|1--1----------2-2-|2--2-----2---|2-2---------------|
|0----0----------|2--2----------4-4-|4--2-----4---|4-2---------------|
|----------------|2--2--------0-----|---0--0--0---|0-0---------------|
|---------------0|0--0--------------|-------------|------------------|
|[gtr 2]                                                             |
|2----2----------|------------------|-------------|------------------|
|3----3----------|----0-------------|------------3|----3-p2----------|
|2----2---------1|----1-------------|2-----------2|----2--2----------|
|0----0---------2|--0-2----------x--|2-----------4|--4-4-p2----------|
|---------------2|--0-2----------x--|0-----------0|--0-0--0----------|
|----------------|--0-0-------------|-------------|------------------|
|[gtr 3]                                                             |
|2-------0h2p0-0-|--0---------------|-------------|----------5-------|
|3---------------|--0---------------|-------------|----------5-------|
|2---------------|--1----------0----|-----4^-4-2--|2------2--2-------|
|0---------------|-------------0----|2-----------4|-------2--2-------|
|0---------------|2--------2-4--3^-0|0-----------0|----------0-------|
|---------------0|0-----/4----------|-------------|------------------|


|Asus2             |Asus2          |Asus2                |Asus2          |
    I'm wet and I'm cold         but thank God I ain't old    Why didn't I
|[gtr 1]                                                 |                
|-------0---0------|------0---0----|------0---0----------|-----0---------|
|---------0------0-|--------0-0---0|--------0-----0------|-------0-0-----|
|----9-------------|----9----------|----9-------9--------|----9----9--0--|
|--7-----------7---|--7---------7--|--7------------------|--7---------0--|
|0-----------------|0--------------|0--------------------|0-----------0--|
|------------------|---------------|---------------------|------------0--|
|[gtr 2]                                                 |                
|----0--0---0--0---|--0---0---0-0--|--0---0---0----------|--0--0---0-----|
|---------0------0-|----0---0-----0|----0---0-----0------|----0--0-------|
|--2---------------|---------------|2-----------2--------|2---------2-0--|
|------------------|---------------|---------------------|---------------|
|0-----------------|0--------------|0--------------------|0--------------|
|------------------|---------------|---------------------|---------------|
|[gtr 3]                                                 |                
|------------------|---------------|---------------------|----<12--\-----|
|------------------|---------------|-------------<12-----|<14------------|
|------------------|---------------|---------------------|---------------|
|------------------|---------------|---------------------|---------------|
|-()----------<<12>|~-------------<|<12>--------(<12>)---|---------------|
|------------------|---------------|---------------------|---------------|
   [fbk]                                                                  


|D  D               |E  E                  |A           D/A   |
 say what I mean?       I should have split home at fifteen    
|[gtr 1]                                                      |
|2--2---------------|0--0------------------|------------------|
|3--3---------------|0--0-----------------3|--------------3--3|
|2--2---------------|4--4---------------2-2|2----------2--2--2|
|0--0--------------2|2--2---------------2-4|2----------2--4--4|
|------------------2|2--2---------------0-0|0-------0--0--0--0|
|------------------0|0--0------------------|------------------|
|[gtr 2]                                                      |
|D  D               |E  E                  |A         D/A     |
|2--2---------------|----------------------|------------------|
|3--3---------------|---------------------3|3----------3-----3|
|2--2---------------|4--4-----------------2|2--2-------2-----2|
|0--0---------------|2--2-----------------4|4--2-------4-----4|
|-------------------|2--2-----------------0|0--0-------0-----0|
|-----------------0-|0--0------------------|------------------|
|[gtr 3]                                                      |
|---2\/~------------|0---------------------|------------------|
|---3\/~------------|0------------------0--|------------------|
|---2\/~------------|1------------------0--|2-----------------|
|0--0\/~------------|2--------x<12>-----0--|2-----------------|
|-----------------2-|---------x<12>-----0--|0-----------------|
|-----------------0-|---------x<12>--------|------------------|


|A                            |D   D                 |E  E             |
      There's a story that the grass is so green                        
|[gtr 1]                                                               |
|A                  A  A  A   |D   D                 |E  E             |
|[gtr 2]                                                               |
|D/A   A            A  A      |D   D                 |E  E             |
|-----------------------------|2---2-----------------|---0-------------|
|-3-------------3------3------|3---3-----------------|---0-------------|
|-2-2-----------2---2--2--2---|2---2-----------------|1--1-------------|
|-4-2-----------4---2--4--2---|0---0-----------------|2--2-------------|
|-0-0-----------0---0--0--0---|----------------------|2--2-------------|
|-----------------------------|----------------------|0--0-------------|
|[gtr 3]                                                               |
|--9--9--9--9--9--9-----------|------------2---------|-0---------------|
|x-10-10-10-10-10-10----------|------------3---------|-0---------------|
|x-9--9--9--9--9--9-----------|11-\--h2----2---------|-1---------------|
|x-------------------x-x------|12-\--0-----0---------|2----------------|
|0-------------------x-x------|12-\--0---------------|2-------2-3^p0---|
|--9--9--x--9--x--9--9/10-----|10----------------10\-|0--0-/4----------|


|G            D             |D           A        |        |       |
 What did I see?     Where have I been?                             
|[gtr 1]                                                           |
|G            D             |D           A        |        |       |
|[gtr 2]                                                           |
|3------------2-------------|---------------------|--------|-------|
|3------------3-------------|3--------------------|--------|-------|
|0------------2-------------|2-----------2--------|--------|-------|
|0------------0-------------|0-----------2--------|--------|-------|
|---------------------------|------------0--------|--------|-------|
|3--------------------------|---------------------|--------|-------|
|[gtr 3]                                                           |
|3------------2-------------|------------5~-------|--------|-------|
|3------------3-------------|2-----------5~-------|--------|-------|
|0------------2-------------|4^\p2-------2~-------|--------|-------|
|0------------0-------------|------------2~-------|--------|-------|
|---------------------------|------------0~-------|--------|-------|
|3--------------------------|---------------------|--------|-------|


                          [2/4]        [4/4]                   
|G          D             |D           |A     |       |       |
 Nothing is planned by the sea and the sand                    
|[gtr 1]                                                      |
|3----------2-------------|2-----------|------|-------|-------|
|3----------3-------------|3-----------|------|-------|-------|
|0----------2-------------|2-----------|2-----|-------|-------|
|0----------0-------------|0-----------|2-----|-------|-------|
|-------------------------|------------|0-----|-------|-------|
|3------------------------|------------|------|-------|-------|
|[gtr 2]                                                      |
|3----------2-------------|2-----------|------|-------|-------|
|3----------3-------------|3-----------|------|-------|-------|
|0----------2-------------|2-----------|2-----|-------|-------|
|0----------0-------------|0-----------|2-----|-------|-------|
|-------------------------|------------|0-----|-------|-------|
|3------------------------|------------|------|-------|-------|
|[gtr 3]                                                      |
|-------------------------|-----5------|------|-------|-------|
|-------5^----------------|------8p5---/10~~~-|-------|-------|
|7^\p5-----------------x--|7^--x-------|------|-------|-------|
|-----7-----7~---------x--|------------|------|-------|-------|
|-------------------------|------------|------|-------|-------|
|-------------------------|------------|------|-------|-------|


[3:30; outro solo]
|[gtr 1]                                                          |
|                 G G G  D   |A   A/G A A A/G A|A  A A  G/G/G  D  |
|-----------------3-3-3--2---|-----------------|--------3-3-3--2--|
|-----------------3-3-3--3---|-----------------|--------3-3-3--3--|
|-----------------0-0-0--2---|2---2-2-2--2--2--|--------0-0-0--2--|
|-----------------0-0-0--0---|2---2-2-2--2--2--|--------0-0-0--0--|
|----------------------------|0-----0-0-----0--|------------------|
|-----------------3-3-3------|----3------3^----|------------3-----|
|[gtr 2]                                                          |
|                 G G G  D   |A  A/G A A  A/G A|            G  D  |
|-----------------3-3-3--2---|-----------------|------------3--5--|
|-----------------3-3-3--3---|-----------------|--------5-5-3--3--|
|-----------------0-0-0--2---|2-----2-2-----2--|--------2-2-0--2--|
|-----------------0-0-0--0---|2-----2-2-----2--|--------2-2-0--0--|
|----------------------------|0-----0-0-----0--|--------0-0-------|
|-----------------3-3-3------|----3------3^----|------------3-----|
|[gtr 3]                                                          |
|-----^20\---20^-^20\--20----|17-17\--8^-8-5---|------------------|
|----------------------------|----------------8|8--8--8-7--7-5-5--|
|----------------------------|-----------------|------------------|
|----------------------------|------0----------|------------------|
|----------------------------|-----------------|------------------|
|----------------------------|-----------------|------------------|


|[gtr 1]                                                                  |
|A   A/G A  A/G A|A        G G G D  |A   A/G A  A/G A|A       G G G   D   |
|[gtr 2]                                                                  |
|A5 A A/G A A/G A|A        G G G  D |A A A/G A  A/G A|A  A/G  A   G  D    |
|5-------5-------|---------3-3-3--2-|----------------|------------3--2----|
|5-------5-------|---------3-3-3--3-|----------------|------------3--3----|
|2-----2-2-------|2--------0-0-0--2-|2----2-2------2-|---2----2-2-0--2----|
|2-----2-2-------|2--------0-0-0--0-|2----2-2------2-|---2----2-2-0--0----|
|0-----0-0-----0-|0--------x--------|0----0-0------0-|---0----0-0---------|
|-----------3^---|---------3-3-3----|--3^-------3^---|3^----------3-------|
|[gtr 3]                                                                  |
|----------------|------------------|------------5---|--------------------|
|----------------|------------------|------------5---|-0------------------|
|5^--------------|-------------5^---|----2-----x-2---|-0------------------|
|--7~------------|--------5-6-7--7-7|~-2-2-----x-2---|-0---12^\p10--12-10^|
|----------------|--5-6-7-----------|--0-0-----x-0---|------------12------|
|----------7/\---|------------------|----------------|--------------------|


|[gtr 1]                                                                      |
|A   A/G A  A/G A|A           A A G D    |A5     A5      A|A5      A A G D    |
                     I'm the Face if you  want it, babe.   I'm the Face if you 
|[gtr 2]                                                                      |
|A5  A/G A  A/G A|   G       G      D    |A5              |        G      D   |
|----------------|-----------3-3-3--2----|5----------5-5--|--------3-3-3--2---|
|5------5-5------|-----------3-3-3--3---5|5-------5--5-5--|--------3-3-3--3---|
|2------2-2----2-|-x----x----0-0-0--2-2-2|2-------2--2-2--|--------0-0-0--2---|
|2------2-2----2-|-x----x----0-0-0--0-2-2|2---2---2--2-2--|----0---0-0-0--0--2|
|0------0-0----0-|-x----x-------------0-0|0---0---0--0-0--|----0-----------0-0|
|----3-------3^--|-3-------------3-------|----------------|----3-------3------|
|[gtr 3]                                                                      |
|----------------|---------------3-------|---9-^----9-^--9|^--9-^-------------|
|----------------|--3------------3-------|---10^----10^-10|^--10^---7------5--|
|--------2-----x-|--0------------0---0---|---9-^----9-^--9|^--9-^---7------5^-|
|------0-2-----x-|--0--------------------|------0---------|---------7---x-----|
|12\-0-0-0-------|-----------------------|0-------0---0-0-|0-0---0----0-------|
|----0-3---------|--3-----------------9--|----------------|------0----0-------|


|[gtr 1]                                                                      |
|A   A/G  A   A/G|A5        A A G D   |A   A/G  A  A/G A|A       A A G   D    |
want it...         I'm the Face if you want it, babe       I'm the Face if you 
|[gtr 2]                                                                      |
|A5              |A5       G       D  |A   A/G A  A/G   |        G G G   D    |
|5-------5---5--5|5--------3-3-3---2--|-----------------|--------3-3-3---2----|
|5----5--5---5--5|5--------3-3-3---3--|-----------------|--------3-3-3---3----|
|2----2--2---2--2|2----0---0-0-0---2--|2---2-2-2----2---|--------0-0-0---2----|
|2----2--2---2--2|2----0---0-0-0---0--|2---2-2-2----2---|--------0-0-0---0----|
|0----0--0---0--0|0-------------------|0---0---0----0---|---------------------|
|----------------|---------3-3-3------|--3---3---3^-----|--------3-3-3--------|
|[gtr 3]                                                                      |
|--5----9-^----9-|^---9-^--7^---------|-----------------|---------------------|
|--5----10^----10|^---10^--8^------5--|-----------------|---------------------|
|-------9-^----9-|^---9-^--7^---0--5^-|-----------------|---------------------|
|7--7------------|--------------0-----|7~--0---7~~--0--x|7-----7/7-7/7--7/7---|
|-----0----0-0---|0-0----0----x-------|------0------0---|-----0---0----0------|
|----/9----0-----|--------------------|-----------------|---------------------|


|[gtr 1]                                                                          |
|A   A/G A  A/G  A  |A          A A G  D   |A   A/G A        |A      A A G   D    |
 want it,               I'm the Face if you want it            I'm the Face if you 
|[gtr 2]                                                                          |
|A  A/G A   A/G A   |               G  D   |A  A/G A  A/G A  |        G G G  D    |
|-------------------|-----------3-3-3--2---|-----------------|--------3-3-3--2----|
|-------------------|-----------3-3-3--3---|-----------------|--------3-3-3--3----|
|2----2-2-------2---|-----------0-0-0--2---|2----2-2------2--|-x-x----0-0-0--2----|
|2----2-2-------2---|-----------0-0-0--0---|2----2-2------2--|-x-x----0-0-0--0----|
|0----0-0-------0---|----------------------|0----0-0------0--|-x-x----------------|
|---3^-------3^-----|-----------3-3-3------|---3-------3^----|--------3-3-3--2----|
|[gtr 3]                                                                          |
|-------------------|----------------------|-----9-----9-----|9-------------------|
|-------------------|----------------------|-----10----10----|10-----7^---5-------|
|-------------------|-------------------5^-|-----9-----9-----|9------7^---5^------|
|7/7-7/7---7/7-7/7--|7/7-7/7----7/7-7----7-|--------0-----0--|-------7^--7-----7--|
|---0----0---------0|--------0-------0-----|7-0-----0-0---0-0|---0----------------|
|-------------------|----------------------|-----------------|--------------------|

                                   [4:10]
|[gtr 1]                                                                       |
|A   A/G A A/G  A|A      A A G D  |A   A/G A  A/G A|A                 A A G D  |
 Want it,    babe                                                               
|[gtr 2]                                                                       |
|A  A/G A  A/G A |       G G G D  |A5 A/G A  A/G A |A/G A              G  D A5 |
|----------------|-------3-3-3--2-|----------------|-------------------3--2---5|
|----------------|----0--3-3-3--3-|----------------|-------------------3--3---5|
|2----2-2------2-|-x--0--0-0-0--2-|2----2-2---2--2-|--2----------------0--2-2-2|
|2----2-2------2-|-x--0--0-0-0--0-|2----2-2---2--2-|--2----------------0--0-2-2|
|0----0-0------0-|-x--------------|0----0-0------0-|--0---------------------0-0|
|---3-------3^---|-------3-3-3----|---3^------3^---|3^-------------------------|
|[gtr 3]                                                                       |
|----9----9------|9\--7-----------|----------------|---------------------------|
|----10---10-----|10\-8-7-5-------|----------------|--^7\-p5--5----------------|
|----9-0--9-0----|------7-5^------|-7^\5--7-5^-----|------x-7---7-5-6----------|
|------0----0----|------7----7~---|0-----7----7-7~-|-----------------7p5-7--x-5|
|0-0----0----0---|---------------0|----------------|---------------------------|
|----------------|----------------|----------------|---------------------------|


|[gtr 1]                                                                          |
|A   A/G A A/G  A |A       A A G   D  |A  A/G A  A/GA |A          A A G     D     |
|[gtr 2]                                                                          |
|A5         A5  A5|       A A G  D A A|A5  A5    A G A|   A A5            G  D    |
|5-----------5---5|-----------3-------|5---------5----|-----5-------------3--2----|
|5-----------5---5|-----------3--3---5|5---5-----5----|5----5-------------3--3----|
|2-----------2---2|-------2-2-0--2-2-2|2---2-----2-0--|2-2--2-------------0--2----|
|2-----------2---2|-2-----2-2-0--0-2-2|2---2-----2-0--|2-2--2-------------0--0----|
|0----0------0---0|-0-----0-0------0-0|0---0-0-0-0---0|0-0--0--------------------0|
|-----------------|-----------3-------|---------------|-------------------3-------|
|[gtr 3]                                                                          |
|-----------------|-------------------|---------------|---------------------------|
|--5--------------|-------------------|---------------|---------------------------|
|--5^p0-5^-5^-5^-5|--^7\p5h7-7-5^-----|---------------|---------------------------|
|7-----7--7--7--7-|--------------7----|--5-7~---------|17h19-19/19-19/19-19/19--19|
|-----------------|----------------0-5|7--------------|---------------------------|
|-----------------|-------------------|---------------|---------------------------|


|[gtr 1]                                                                         |
|A5      A5  A5  |A5          G   G  D     |A5      A5 A5   |A5     G G G   D    |
|5-------5---5---|5-----------3---3--2-----|5-------5---5---|5----------3---2----|
|5-------5---5---|5-----------3---3--3-----|5-------5---5---|5----------3---3----|
|2-------2---2---|2-----------0---0--2-----|2-------2---2---|2------2-2-0---2----|
|2-------2---2---|2--------0--0---0--0-----|2-------2---2---|2------2-2-0---0----|
|0-------0---0---|0------------------------|0-------0---0---|0------0-0----------|
|----------------|----------------3--------|----------------|-----------3--------|
|[gtr 2]                                                                         |
|A  A/G  A5 A/G A|5  G     G G G   D       |A A5 G A A5 G A |A5 G A A5  G  G   D |
|--------5------5|---5-----3-3-3---2-------|--5------5-----5|-----------3--2-----|
|--5-----5------5|---5-----3-3-3^--3-------|--5------5-----5|-----------3--3-----|
|--2-0---2--0---2|---2-----0-0-0---2-------|2-2--0-2-2-0-2-2|2---2--0-0-0--2--2-2|
|--2-0-2----0-2--|---2-0-----------0-------|2----0-2---0-2--|2---2--0-0-0--0--2-2|
|0-0---0------0--|-----0-----------------0-|0----0-0---0-2--|0---0------------0-0|
|----------------|-------------------------|----------------|--------------------|
|[gtr 3]                                                                         |
|----------------|-------------------------|----------------|--17-19-19^-19^-17--|
|----------------|-------------------------|----------------|------------------20|
|17-----------19^|^19--19^-19---19----17-19|19^--17-17--\---|19------------------|
|--19-19--x------|------------19-----------|--------19--\---|--------------------|
|----------------|-------------------------|----------------|--------------------|
|----------------|-------------------------|----------------|--------------------|


|[gtr 1]                                                                 |
|A5   A5 A5  |A5     G G G     D       |A5      A5 A5   |A5  A  G G G D  |
                                                                    If you
|[gtr 2]                                                                 |
|A5 A5  A5   |A    G G G   G   D  D    |A5  A     A5    |A5  A G    G D  |
|5--5---5----|-----3-3-3---3-3---------|5---------5-----|5-----------3-2-|
|5--5---5----|-----3-3-3---3-3-2--2----|5---5-----5-----|5-----------3-3-|
|2--2---2----|-x---0-0-0---0-0-3--3----|2---2-----2-----|2--2--0-0-0-0-2-|
|2--2---2----|-x---0-0-0---0-0-0--0----|2---2-----2-----|2--2--0-0-0-0-0-|
|0--0---0--0-|-----0-0-0-0---0----0----|0---0-----0-----|0--0--0-0-0-----|
|------------|-------------3^--2-------|----------------|------------3---|
|[gtr 3]                                                                 |
|17--0-------|-------------------------|----------------|----------------|
|------------|17-----------------------|--------------^7|\---5-----------|
|-------16^--|---16^\-16-14--16^^-16^\-|14--------------|------5^--------|
|------------|-------------------------|----------------|---------7~-----|
|------------|-------------------------|----------------|----------------|
|------------|-------------------------|---9\-----------|----------------|

[4:35]
|[gtr 1]                                                                       |
|A5                A |A       G G G D  |A5              |A          G G G  D   |
 want it, if..it, if...it, if...it, if ...it,    if you  want it                
|[gtr 2]                                                                       |
|A5 A5  A A5         |A5        G D    |A               |               G      |
|5--5-----5----------|5----------2-----|9-----9-----9---|--9---7--9-----7--7---|
|5--5-----5----------|5----------3-----|10----10----10--|--10--8--10--8-8--8---|
|2--2-----2----------|2-----0-0-02-0---|------9-----9---|--9---7--9---7-7--7---|
|2--2-----2----------|2-----0-0-0--0-0-|--------0-11--0-|------0------0------0-|
|0--0---0-0------0---|0-0---0-0-0----0-|--0-----0-----0-|--------------------0-|
|--------------------|-----------------|----9-----9-----|9---------------------|
|[gtr 3]                                                                       |
|--------------------|-----------------|----------------|----------------------|
|--------------------|----------------x|----------------|----------------------|
|--------------------|--------5^------x|--x------x------|x-------x-------------|
|----------5-6-7-----|--5-6-6---7-7~--x|--x-7~---x-7~---|x-7~----x-7~----------|
|----5-6-7-------5-6-|7----------------|----------------|--0-------0-----------|
|--------------------|0----------------|----------------|----------------------|


|[gtr 1]                                                                  |
|A5      A5     A|A5     G G G D  |A5  A/G A   A/G  A   |A      G G G D   |
 want it   If you want it  If you want it?                Ah, I'm the Face 
|[gtr 2]                                                                  |
|--9-----9-----9-|--9---7---7-7-7-|---9-----9-----9-----|---9------7-7-7-7|
|--10----10----10|--10--8---8-8-8-|---10----10----10--0-|---10-----8-8-8-8|
|--9-----9-----9-|--9-------7-7-7-|---9-----9-----9---0-|---9------7-7-7-7|
|----------0-----|0---------------|-------------------0-|----------0-0-0-0|
|0---0-----0-----|0--0----0------0|0----0------0--------|0-----0-0--------|
|------9-----9---|-9--------------|-------9------9------|-9---------------|
|[gtr 3]                                                                  |
|----------------|--5-------7~----|---5-----------------|-----------------|
|x-------x-------|x-5^------7~---x|x------x------x------|-----------------|
|x-7-----x-------|x-5^--x-x-7~---x|x------x------x------|-----x-x-5-----5^|
|x-7~----x-7~----|x---7~x-x------x|x--7---x---7--x--7---|--7--x-x-7-x-7---|
|--0-------0-----|----0---0-------|---x-------x-----x---|--x--x-----------|
|----------------|----------------|---5-------5-----5---|--5--------------|


|[gtr 1]                                                                 |
|A5      A5     A|A5           G G G D  |A   A/G A A/G A |A      G G G D |
                                 I'm the Face                    I'm the  
|[gtr 2]                                                                 |
|                |              G  D    |A5      A/G   A |           G D |
|--9-----9----9--|----9---------3--2----|5--5------------|-----------3-2-|
|--10----10---10-|----10--------3--3----|5--5------------|-----------3-3-|
|--9-----9----9--|----9---------0--2----|2--2--2-------2-|-------0-0-0-2-|
|----0-----------|--------------0--0-2-2|2--2--2-2-2---2-|2-2-0--0-0-0-0-|
|----0-----0-----|0-0----0-0---------0-0|0--0--0---0---0-|--0-0----------|
|9-----9-----9---|--9-----------3-------|--------3^------|3^--3--3-3-3---|
|[gtr 3]                                                                 |
|----------------|------------------5-5-|5---------------|-----------3-2-|
|----------------|------------------5-5-|5---------------|x--x----x--3-3-|
|x--5^-----------|-----------<2-----2-2-|2--------x------|x--x----x--0-2-|
|7--x---7--x-----|-----------<2-----2-2-|2--------x------|x--2----x--x-00|
|-------------x--|-----------<0-----0-0-|0--------x------|---0-----0-x---|
|----------------|----------------------|-----------10\--|---------------|


|[gtr 1]                           |
|A      A  A |A   A  G G G     D   |
 Face                      If you...
|[gtr 2]                           |
|A A/G A   A |A  A/G A G G     D   |
|------------|-----------3-----2---|
|------------|-----------3-----3---|
|---2--------|-----------0-----2---|
|x--2--------|--2--------0-----0---|
|3^-0----0-3^|--0----0-------------|
|------3^----|----3^-----3-----2---|
|[gtr 3]                           |
|------------|---------------------|
|------------|---------------------|
|------2---2-|----2-------------0--|
|------------|---------------------|
|3^\p0--x3--x|-x---3^\p0--0--3^----|
|------------|----------3^---------|


=============
litgo@aol.com

#----------------------------------PLEASE NOTE---------------------------------#
#This file is the author's own work and represents their interpretation of the #
#song. You may only use this file for private study, scholarship, or research. #
#------------------------------------------------------------------------------#

Disclaimer

A note on the content here:

The files archived on this site are the respective transcriber’s own work and represent their interpretations of the songs. You may only use these files for private study, scholarship or research. more on use of files >>

Section navigation

Tablature Section

Site info Navigation

Whotabs is not affiliated with The Who, its record company or management.