Whotabs – The Definitive Online Tablature and Gear Resource for The Who since 1997

Return to Whotabs

Sparks (live) – guitar tab

Sparks (live) | guitar tab
By The Who
>Originally from Tommy, 1969
>Live versions from remastered Live at Leeds and Woodstock (Kids Are Alright
soundtrack) 
Written by Pete Townshend (c)1969 Fabulous Music Ltd.

#----------------------------------PLEASE NOTE---------------------------------#
#This file is the author's own work and represents their interpretation of the #
#song. You may only use this file for private study, scholarship, or research. #
#------------------------------------------------------------------------------#

Previous transcription by: Mike (sef@icbr.ufl.edu)
==============                                                        
transcribed by         2001-08-31          Whotabs                    
litgo@aol.com      rev 2003-05-14          www.thewho.net/whotabs     
==============                                                        

Note: this is a generic live version, culled from multiple resources, 
including the remastered Live at Leeds version or Woodstock version from 
The Kids Are Alright soundtrack or the 30 Years of Max R&B box set.

E5   022400
Em11 022233 and xx2233

[interlude from Amazing Journey]
||:E  Em11   E  Em11 |E   Em11      D  A :|| 
||----3---------3----|-----3--------------||
||----3---------3----|-----3--------3--2--||
||.---2---------2----|-----2--------2--2-.||
||.---2---------2----|-----2--------0--2-.||
||-------------------|-----------------0--||
||-0-----0/0-0-----0/|0-0-----0/0-0-------||

||:E5        E/D E   E5 |E/D   E5    D5    A/C#    :||x5
||-0-----0-----------0--|------0--------------------||
||-0-----0-----------0--|------0--------------------||
||.4-----4-----------4--|------4-----2--2---2---2--.||
||.2-----2----0h2----2--|0h2---2-----0--0----------.||
||----------------------|-------------------4---4---||
||----------------------|---------------------------||
||[bass solo; with variations]                      ||
||-------------12-------|-------------12h14-14h12---||
||.-------12h14---12-12-|-----12h14-14-----------12.||
||.--12h14--------------|12h14---------------------.||
||-12-------------------|---------------------------||

|E5     E/D   E5|E/D E5  D5 A/C#  |
|0--0---------0-|----0------------|
|0--0---------0-|----0------------|
|4--4---------4-|----4---2-2------|
|2--2----0h2--2-|0h2-2---0-0------|
|---------------|------------4p2p0|
|---------------|-----------------|

|B       |A/B     |B6      |A6/B    |
|--------|--------|4-------|2-------|
|4-------|2-------|4-------|2-------|
|4-------|2-------|4-------|2-------|
|4-------|2-------|4-------|2-------|
|2-------|2----222|2----222|2-------|
|--------|--------|--------|--------|
|                                   |
|--------|--------|--------|--------|
|--------|--------|--------|--------|
|22222222|22222222|22222222|2-2-2-2-|
|--------|--------|--------|--------|

==============================================================

[Sparks INTRO; strum down slowly to arpeggiate chord]

|E/D     |Esus4/D|     |      |      |      |        |       |
|4-------|5---0--|4----|5--0--|4-----|5--0--|4-------|5---0--|
|5-------|5------|5----|5-----|5-----|5-----|5-------|5--(5)-|
|4-------|4------|4----|4-----|4-----|4-----|4-------|4--(4)-|
|0-------|0------|0----|0-----|0-----|0-----|0-------|0------|
|--------|-------|-----|------|------|------|--------|-------|
|--------|-------|-----|------|------|------|--------|-------|
|[bass]                                                      |
|----9---|----7--|-----|------|------|------|----9---|----9--|
|---9-9--|---7---|-----%------|------%------|---9-9-9|---7---|
|7-----7-|5----5-|-----|------|------|------|7-----7-|7----7-|
|--------|-------|-----|------|------|------|--------|-------|

|D       |D5 Ds2 |E/D     |Esus4/D |E/D       |            |
|2-------|5---0--|4-------|5---0---|4---------|------------|
|3-------|3---3--|5-------|5-------|5---------|------------|
|2-------|2---2--|4-------|4-------|4---------|------------|
|0-------|0---0--|0-------|0-------|0---------|------------|
|--------|-------|--------|--------|----------|------------|
|--------|-------|--------|--------|----------|------------|
|                                                          |
|----7---|----7--|----9---|----9---|------9---|--------9---|
|---7-7-7|---7---|---9-9-9|-----9-9|-------9-9|---------9-9|
|5-----5-|5----7-|7-----7-|7--7--7-|7-7--7--7-|7-7-7--7--7-|
|--------|-------|--------|--------|----------|------------|

[MAIN RIFF]

|--------|-------------|--------|-------------|--------|--------------|
|--------|-------------|--------|-------------|--------|--------------|
|--------|-------------|--------|-------------|--------|--------------|
|2-0-----|--2-0--------|2-0-----|--2-0--------|0-------|--0-----------|
|--------|------3-2-0--|--------|------3-2-0--|--3-----|-----3-2-0---0|
|--------|------------3|--------|------------3|--------|-----------3--|
|[bass]                                       |                       |
|--------|-------------|--------|-------------|--------|--------------|
|--------|-------------|--------|-------------|--------|--------------|
|7-5--5-5|5-7-5-3-2-0--|7-5--5-5|5-7-5-3-2-0--|5-3--3-3|3-5--3-2-0----|
|--------|------------3|--------|------------2|--------|-----------3-5|

|B              |                |B7sus4         |B              |
|---------------|----------------|5--------------|---------------|
|---------------|----------------|5--------------|---------------|
|---------------|----------------|2------------4-|4-------4-4-4--|
|-----------4-4-|-4-4-4-4-4-4-4-4|2------------4-|4-----4-4-4-4--|
|2------2-2-2-2-|-2-2-2-2-2-2-2-2|2------------2-|2---2-2-2-2-2-0|
|---------------|----------------|---------------|---------------|

[CHORUS; all chords with D bass]
|E D     | E D A  |E D     | E D E  |
|4-2-----|-4-2-5--|4-2-----|-4-2-4--|
|5-3-----|-5-3-5--|5-3-----|-5-3-5--|
|4-2-----|-4-2-6--|4-2-----|-4-2-4--|
|00000000|00000000|00000000|00000000|
|--------|--------|--------|--------|
|--------|--------|--------|--------|
|                                   |
|--------|--------|--------|--------|
|--------|--------|--------|--------|
|55555555|----%---|---%----|----%---|
|--------|--------|--------|--------|

|F# Bb   |F# Bb F#|G       |        |
|6-6-----|-6-6-6--|7-------|--------|
|7-6-----|-7-6-7--|8-------|--------|
|6-7-----|-6-7-6--|7-------|--------|
|00000000|00000000|00000000|00000000|
|--------|--------|--------|--------|
|--------|--------|--------|--------|

|7---8--7-|----------------|7-----8----10|-------|
|-8---8--8|--10-(8)-10-8---|--8-----8----|-------|
|--7---7--|7-------7-----7-|----7-----7--|-------|
|---------|---------------0|-------------|----000|
|---------|----------------|-------------|-------|
|---------|----------------|-------------|-------|

| G F    | G C F  | G  C  |F       |
|-7-5----|-7-8-5--|-7--8--|5-------|
|-8-6----|-8-8-6--|-8--8--|6-------|
|-7-5----|-7-9-5--|-7--9--|5-------|
|00000000|00000000|0000000|00000000|
|--------|--------|-------|--------|
|--------|--------|-------|--------|

|G F     | G F C  | G  C  |D        |
|7-5-----|-7-5-8--|-7--8--|10-------|
|8-6-----|-8-6-8--|-8--8--|10-------|
|7-5-----|-7-5-9--|-7--9--|11-------|
|00000000|00000000|0000000|-00000000|
|--------|--------|-------|---------|
|--------|--------|-------|---------|

 [strum downward slowly to arpeggiate]
|B        |D        |Cadd9    |D        |B    D    |B    D    |
|11-------|10-------|10-------|10-------|11---10---|11---10---|
|12-------|10-------|8--------|10-------|12---10---|12---10---|
|11-------|11-------|9--------|11-------|11---11---|11---11---|
|-00000000|-00000000|0-0000000|-00000000|-0000-0000|-0000-0000|
|---------|---------|---------|---------|----------|----------|
|---------|---------|---------|---------|----------|----------|

|B   D   B   D   |B   D   B   D   |
|11--10--11--10--|11--10--11--10--|
|12--10--12--10--|12--10--12--10--|[then
|11--11--11--11--|11--11--11--11--| repeat
|-0-0-0-0-0-0-0-0|-0-0-0-0-0-0-0-0| intro]
|----------------|----------------|
|----------------|-----xxxxxxxxxx-|

[repeat intro theme; pedal on for feedback]
|E       |       |E    |      |E     |      |E       |       |
|--------|-------|-----|------|------|------|--------|-------|
|--------|-------|-----|------|------|------|--------|-------|
|--------|-------|-----|------|------|------|--------|-------|
|-----2p0|2p0h2p0|-----|------|------|------|--------|------0|
|2~------|-------|2~---|------|2-----|xxxxxx|--------|------0|
|0~------|-------|0~---|------|0-----|xxxxxx|0-------|-------|

|D       |       |E       |            |E     |            |
|--------|-------|--------|------------|------|------------|
|--------|-------|--------|------------|------|------------|
|--------|-------|--------|------------|------|------------|
|0-------|-------|--------|------------|------|------------|
|0-------|-------|--------|------------|------|------------|
|--------|------0|0~~~----|xxxxxxxx/12\|0-----|------------|

[repeat main riff; pedal off]
|--------|-------------|--------|---------------|--------|--------------|
|--------|-------------|--------|---------------|--------|--------------|
|--------|-------------|--------|---------------|--------|--------------|
|2-0-----|--2-0--------|2-0-h2p0|h2--2-0--------|0-------|--0-----------|
|--------|------3-2-0--|--------|--------3-2-0--|--3-----|-----3-2-0---0|
|--------|------------3|--------|--------------3|--------|-----------3--|

|B              |                |B7sus4         |B              |
|---------------|----------------|5--------------|---------------|
|---------------|----------------|5--------------|4--------------|
|---------------|----------------|4-----------4/4|4--------------|
|-----------4-4-|-4-4-4-4-4-4-4-4|4-----------4/4|4--------------|
|2--2-2-2-2-2-2-|-2-2-2-2-2-2-2-2|2-----------2/2|2-----------2-0|
|---------------|----------------|---------------|---------------|

|E D     | E D A  |E D     | E D E  |
|4-2-----|-4-2-5--|4-2-----|-4-2-4--|
|5-3-----|-5-3-5--|5-3-----|-5-3-5--|
|4-2-----|-4-2-6--|4-2-----|-4-2-4--|
|00000000|00000000|00000000|00000000|
|--------|--------|--------|--------|
|--------|--------|--------|--------|

                                [outro]
|F# Bb   |F# Bb F#|G             C/D|
|6-6-----|-6-6-6--|7------8|7----8--|
|7-6-----|-7-6-7--|8-------|-8---8--|
|6-7-----|-6-7-6--|7-------|--7--9--|
|00000000|00000000|0-------|---00--0|
|--------|--------|--------|--------|
|--------|--------|--------|--------|

|G/D A/D |E/D  D  |C/D  G/D|D   C/D |
|7----5--|4----2--|0----3--|2----8--|
|8----5--|5----3--|2----0--|3----8--|
|7----6--|4----2--|0----0--|2----9--|
|-0000-0-|-0000-0-|0-000-0-|-0000-0-|
|--------|--------|--------|--------|
|--------|--------|--------|--------|

|G/D A/D |E/D  D  |A  D/A |A   D/A|A7  D/A|A    |
|7----5--|4----2--|0------|-------|-------|-----|
|8----5--|5----3--|2----3-|2----3-|5----3-|-----|
|7----6--|4----2--|2----2-|2----2-|0----2-|2----|
|-0000-0-|-0000---|2----4-|2----4-|5----4-|2----|
|--------|-------0|0-000--|0-000--|0-000--|0----|
|--------|--------|-------|-------|-------|-----|

=============
litgo@aol.com

#----------------------------------PLEASE NOTE---------------------------------#
#This file is the author's own work and represents their interpretation of the #
#song. You may only use this file for private study, scholarship, or research. #
#------------------------------------------------------------------------------#

Disclaimer

A note on the content here:

The files archived on this site are the respective transcriber’s own work and represent their interpretations of the songs. You may only use these files for private study, scholarship or research. more on use of files >>

Section navigation

Tablature Section

Site info Navigation

Whotabs is not affiliated with The Who, its record company or management.