Whotabs – The Definitive Online Tablature and Gear Resource for The Who since 1997

Return to Whotabs

Squeeze Box – bass tab

Squeeze Box | bass tab
By The Who
>From The Who By Numbers, 1975
Written by Pete Townshend (c)1975 Towser Tunes Inc. 
 
#----------------------------------PLEASE NOTE---------------------------------#
#This file is the author's own work and represents their interpretation of the #
#song. You may only use this file for private study, scholarship, or research. #
#------------------------------------------------------------------------------#

Basstab by Jan Bjorklund, Finland; 
jani_bjorklund@yahoo.se 
You are welcome to request for basstabs!
Bienvenidos a pedirme transcripciones para el bajo!
Fingering and positions as suggested by TablEdit. 


Added 2004-12-04              Whotabs          www.thewho.net/whotabs/

A TRIBUTE TO 
John Entwistle

TablEdited by Jan Bjorklund
Tuning : E A D G 	Time Signature: 4/4

 |       |       |       |        |       |       |       |        
|--0-----------------------------|--------0---------------0-------|
|--------------------------------|--------------------------------|
|--------------------------------|--------------------------------|
|3-------------------------------|3---------------3---------------|

 |       |       |       |        |       |       |       |        
|--------0-----------------------|--------0---------------0-------|
|----------------------------0---|--------------------------------|
|----------------2---3---4-------|--------------------------------|
|3-------------------------------|3---------------3---------------|

 |       |       |       |        |       |       |       |        
|--------0-----------------------|--------0---------------0-------|
|----------------------------0---|--------------------------------|
|----------------2---3---4-------|--------------------------------|
|3-------------------------------|3---------------3---------------|

 |       |       |       |        |       |       |       |        
|--------0-----------------------|--------0---------------0-------|
|----------------------------0---|--------------------------------|
|----------------2---3---4-------|--------------------------------|
|3-------------------------------|3---------------3---------------|

 |       |       |       |        |       |       |       |        
|--------0-----------------------|--------------------------------|
|----------------------------0---|0---------------0-----------0---|
|----------------2---3---4-------|--------------------------------|
|3-------------------------------|--------------------------------|

 |       |       |       |        |       |       |       |        
|--------------------------------|--------------------------------|
|0---------------0---------------|--------------------------------|
|--------------------------------|3---------------3-----------3---|
|--------------------------------|--------------------------------|

 |       |       |       |        |       |       |       |        
|--------------------------------|--------------------------------|
|--------------------------------|0-----------0---0---------------|
|3---------------3---2---3---4---|--------------------------------|
|--------------------------------|--------------------------------|

 |       |       |       |        |       |       |       |        
|--------------------------------|--------------------------------|
|--------------------------------|--------------------------------|
|3-----------3---3---------------|--------------------------------|
|--------------------------------|3---------------3---------------|

 |       |       |       |        |       |       |       |        
|--------------------------------|--------------------------------|
|----------------------------0---|--------------------------------|
|----------------2---3---4-------|--------------------------------|
|3-------------------------------|3---------------3---------------|

 |       |       |       |        |       |       |       |        
|--------------------------------|--------------------------------|
|----------------------------0---|--------------------------------|
|----------------2---3---4-------|--------------------------------|
|3-------------------------------|3---------------3---------------|

 |       |       |       |        |       |       |       |        
|--------------------------------|--------------------------------|
|----------------------------0---|--------------------------------|
|----------------2---3---4-------|--------------------------------|
|3-------------------------------|3---------------3---------------|

 |       |       |       |        |       |       |       |        
|--------------------------------|--------------------------------|
|----------------------------0---|0---------------0---------------|
|----------------2---3---4-------|--------------------------------|
|3-------------------------------|--------------------------------|

 |       |       |       |        |       |       |       |        
|--------------------------------|--------------------------------|
|0-----------0---0-------0-------|--------------------------------|
|--------------------------------|3---------------3-----------3---|
|--------------------------------|--------------------------------|

 |       |       |       |        |       |       |       |        
|--------------------------------|--------------------------------|
|--------------------------------|0---------------0---------------|
|3---------------3---2---3---4---|--------------------------------|
|--------------------------------|--------------------------------|

 |       |       |       |        |       |       |       |        
|--------------------------------|--------------------------------|
|--------------------------------|--------------------------------|
|3---------------3---------------|--------------------------------|
|--------------------------------|3---------------3---------------|

 |       |       |       |        |       |       |       |        
|--------------------------------|--------------------------------|
|----------------------------0---|--------------------------------|
|----------------2---3---4-------|--------------------------------|
|3-------------------------------|3---------------3---------------|

 |       |       |       |        |       |       |       |        
|--------------------------------|--------------------------------|
|----------------------------0---|--------------------------------|
|----------------2---3---4-------|--------------------------------|
|3-------------------------------|3---------------3---------------|

 |       |       |       |        |       |       |       |        
|--------------------------------|--------------------------------|
|----------------------------0---|--------------------------------|
|----------------2---3---4-------|--------------------------------|
|3-------------------------------|3---------------3---------------|

 |       |       |       |        |       |       |       |        
|--------------------------------|--------------------------------|
|----------------------------0---|0---------------0-----------0---|
|----------------2---3---4-------|--------------------------------|
|3-------------------------------|--------------------------------|

 |       |       |       |        |       |       |       |        
|--------------------------------|--------------------------------|
|0---------------0---------------|--------------------------------|
|--------------------------------|3-----------3---3---------------|
|--------------------------------|--------------------------------|

 |       |       |       |        |       |       |       |        
|--------------------------------|--------------------------------|
|--------------------------------|0---------------0---------------|
|3---------------3---2---3---4---|--------------------------------|
|--------------------------------|--------------------------------|

 |       |       |       |        |       |       |       |        
|--------------------------------|--------------------------------|
|--------------------------------|--------------------------------|
|3---------------3---------------|--------------------------------|
|--------------------------------|3---------------3---------------|

 |       |       |       |        |       |       |       |        
|--------------------------------|--------------------------------|
|----------------------------0---|--------------------------------|
|----------------2---3---4-------|--------------------------------|
|3-------------------------------|3---------------3---------------|

 |       |       |       |        |       |       |       |        
|--------------------------------|--------------------------------|
|----------------------------0---|--------------------------------|
|----------------2---3---4-------|--------------------------------|
|3-------------------------------|3-------------------------------|

 |       |       |       |        |       |       |       |        
|--------------------------------|--------------------------------|
|--------------------------------|--------------------------------|
|--------------------------------|--------------------------------|
|--------------------------------|3-------------------------------|

 |       |       |       |        |       |       |       |        
|--------------------------------|--------------------------------|
|--------------------------------|0-----------0---0---------------|
|--------------------------------|--------------------------------|
|--------------------------------|--------------------------------|

 |       |       |       |        |       |       |       |        
|--------------------------------|--------------------------------|
|------------0---0---------------|--------------------------------|
|--------------------------------|3-----------3---3---------------|
|--------------------------------|--------------------------------|

 |       |       |       |        |       |       |       |        
|--------------------------------|--------------------------------|
|--------------------------------|0-----------0---0---------------|
|----------------3---2---3---4---|--------------------------------|
|--------------------------------|--------------------------------|

 |       |       |       |        |       |       |       |        
|--------------------------------|--------------------------------|
|--------------------------------|--------------------------------|
|3-----------3---3---------------|--------------------------------|
|--------------------------------|3-----------3---3---------------|

 |       |       |       |        |       |       |       |        
|--------------------------------|--------------------------------|
|--------------------------------|--------------------------------|
|--------------------------------|--------------------------------|
|3-----------3---3-------3-------|3---------------3---------------|

 |       |       |       |        |       |       |       |        
|--------------------------------|--------------------------------|
|----------------------------0---|--------------------------------|
|----------------2---3---4-------|--------------------------------|
|3-------------------------------|3---------------3---------------|

 |       |       |       |        |       |       |       |        
|--------------------------------|--------------------------------|
|----------------------------0---|0-----------0---0---------------|
|----------------2---3---4-------|--------------------------------|
|3-------------------------------|--------------------------------|

 |       |       |       |        |       |       |       |        
|--------------------------------|--------------------------------|
|0-----------0---0---------------|--------------------------------|
|--------------------------------|3-----------3---3---------------|
|--------------------------------|--------------------------------|

 |       |       |       |        |       |       |       |        
|--------------------------------|--------------------------------|
|--------------------------------|0-----------0---0---------------|
|3---------------3---2---3---4---|--------------------------------|
|--------------------------------|--------------------------------|

 |       |       |       |        |       |       |       |        
|--------------------------------|--------------------------------|
|--------------------------------|--------------------------------|
|3-----------3---3---------------|--------------------------------|
|--------------------------------|3---------------3---------------|

 |       |       |       |        |       |       |       |        
|--------------------------------|--------------------------------|
|----------------------------0---|--------------------------------|
|----------------2---3---4-------|--------------------------------|
|3-------------------------------|3---------------3---------------|

 |       |       |       |        |       |       |       |        
|--------------------------------|--------------------------------|
|----------------------------0---|--------------------------------|
|----------------2---3---4-------|--------------------------------|
|3-------------------------------|3---------------3---------------|

 |       |       |       |        |       |       |       |        
|--------------------------------|--------------------------------|
|----------------------------0---|0-----------0---0---------------|
|----------------2---3---4-------|--------------------------------|
|3-------------------------------|--------------------------------|

 |       |       |       |        |       |       |       |        
|--------------------------------|--------------------------------|
|0-----------0---0---------------|--------------------------------|
|--------------------------------|3-----------3---3---------------|
|--------------------------------|--------------------------------|

 |       |       |       |        |       |       |       |        
|--------------------------------|--------------------------------|
|--------------------------------|0-----------0---0---------------|
|3-----------3---3---2---3---4---|--------------------------------|
|--------------------------------|--------------------------------|

 |       |       |       |        |       |       |       |        
|--------------------------------|4---2-----------2---------------|
|--------------------------------|--------5---2-------5---2-------|
|3-----------3---3---------------|----------------------------5---|
|--------------------------------|--------------------------------|

 |       |       |       |        |       |       |       |        
|--------------------------------|--------------------------------|
|2---0---------------------------|--------------------------------|
|--------2-----------------------|--------------------------------|
|------------3-------------------|--------------------------------|


Created with TablEdit http://www.tabledit.com/



#----------------------------------PLEASE NOTE---------------------------------#
#This file is the author's own work and represents their interpretation of the #
#song. You may only use this file for private study, scholarship, or research. #
#------------------------------------------------------------------------------#

Disclaimer

A note on the content here:

The files archived on this site are the respective transcriber’s own work and represent their interpretations of the songs. You may only use these files for private study, scholarship or research. more on use of files >>

Section navigation

Tablature Section

Site info Navigation

Whotabs is not affiliated with The Who, its record company or management.