Whotabs – The Definitive Online Tablature and Gear Resource for The Who since 1997

Return to Whotabs

They Made My Dream Come True – guitar tab

They Made My Dream Come True | guitar tab
By The Who
>From Wire & Glass (EP)/Endless Wire, 2006
Written by Pete Townshend (c)2006 Eel Pie Publishing Ltd.

#----------------------------------PLEASE NOTE---------------------------------#
#This file is the author's own work and represents their interpretation of the #
#song. You may only use this file for private study, scholarship, or research. #
#------------------------------------------------------------------------------#

==============                                                        
transcribed by                             Whotabs                    
litgo@aol.com          2007-01-10          www.thewho.net/whotabs     
==============                                                        


Capo on 3
Patterns approximate; chord names approximate

[6/8]
 Fadd9              Ebadd9                
|--3-3-3----3-3-3--|--3-3-3----3-3-3----||
|--6-6-6----6-6-6--|--6-6-6----6-6-6----||
|--3-3-3-3h5--5-5--|--3-3-3----3-3-3----||
|3-----------------|--3-3-3-h5-5-5-5----||
|------------------|6-------------------||
|------------------|--------------------||

People died where I performed
People cried when glass deformed
Shots rang out as the singer yawned

    |Ebadd9        Fadd9/G Fadd9/Ab Fadd9/G||
 The band played on    until the dawn
    |3--3-3--------3-3--|--3-3----3-3------||
    |6--6-6--------6-6--|--6-6----6-6------||
    |3--3-3--------3-3--|--3-3----3-3------||
    |3--3-3----3h5-5-5-5|h6--6---5--5------||
    |6------------------|------------------||
    |-------------------|------------------||


Lies and drunks and drugs and fools
Tricks and stunts disguise the tools
Was the victim dead, was there blood in pools
Was this not part of show-biz rules?

    |Ebadd9  Fadd9/D   |C#7        ||
They made my dream come true         
    |3-------3---------|3----------||
    |6-------6---------|6----------||
    |3-------3---------|3----------||
    |5-------3---------|3----------||
    |6-------5---------|4----------||
    |------------------|-----------||


They made my dream come true
They made my dream come true

|---3-------3----|3---------||
|---6-------6----|6---------||
|---3-------3----|3---------||
|---5-------3----|3---------||
|6--6----5--5----|4---------||
|----------------|----------||




=============
litgo@aol.com

#----------------------------------PLEASE NOTE---------------------------------#
#This file is the author's own work and represents their interpretation of the #
#song. You may only use this file for private study, scholarship, or research. #
#------------------------------------------------------------------------------#

Disclaimer

A note on the content here:

The files archived on this site are the respective transcriber’s own work and represent their interpretations of the songs. You may only use these files for private study, scholarship or research. more on use of files >>

Section navigation

Tablature Section

Site info Navigation

Whotabs is not affiliated with The Who, its record company or management.