Whotabs – The Definitive Online Tablature and Gear Resource for The Who since 1997

Return to Whotabs

Top Gear – guitar tab

Top Gear | guitar tab
Written and performed by The Who, (c)1967
>Appears on The Who Sell Out (reissue), 1995

#----------------------------------PLEASE NOTE---------------------------------#
#This file is the author's own work and represents their interpretation of the #
#song. You may only use this file for private study, scholarship, or research. #
#------------------------------------------------------------------------------#

==============                                                        
transcribed by                             Whotabs                    
litgo@aol.com          2001-08-15          www.thewho.net/whotabs     
==============                                                        

[main riff]
                             x4
||-------------|-------------||
||-------------|-------------||
||.------------|------------.||
||.--6/4-4-4/6-|--6/4-4-4/6-.||
||---7/5-5-5/7-|--7/5-5-5/7--||
||-0-----------|0------------||

  E           |E           |E           |E           |
                 Top gear!                 Top gear!  
||------------|------------|------------|------------|
||------------|------------|------------|------------|
||------------|------------|------------|------------|
||--6/4-4-4/6-|--6/4-4-4/6-|--6/4-4-4/6-|--6/4-4-4/6-|
||--7/5-5-5/7-|--7/5-5-5/7-|--7/5-5-5/7-|--7/5-5-5/7-|
||0----0------|0----0------|0----0------|0-----------|

|A          |A          |E          |E          |
               Top gear!               Top gear! Ahhh Ahhh 
|-----------|-----------|-----------|-----------|----|----|
|-----------|-----------|-----------|-----------|----|----|
|--6/4-4-4/6|--6/4-4-4/6|-----------|-----------|4---|2---|
|--7/5-5-5/7|--7/5-5-5/7|--6/4-4-4/6|--6/4-4-4/6|4---|2---|
|0----------|0----------|--7/5-5-5/7|--7/5-5-5/7|2---|0---|
|-----------|-----------|0----------|0----------|----|---0|

|E           |E           |E      ||
 Ahh            Top gear!   
|------------|------------|0-0----||
|------------|------------|0-0----||
|------------|------------|9-9----||
|--6/4-4-4/6-|--6/4-4-4/6-|9-9----||
|--7/5-5-5/7-|--7/5-5-5/7-|7-7----||
|0-----------|0-----------|0-0----||

=============
litgo@aol.com

#----------------------------------PLEASE NOTE---------------------------------#
#This file is the author's own work and represents their interpretation of the #
#song. You may only use this file for private study, scholarship, or research. #
#------------------------------------------------------------------------------#

Disclaimer

A note on the content here:

The files archived on this site are the respective transcriber’s own work and represent their interpretations of the songs. You may only use these files for private study, scholarship or research. more on use of files >>

Section navigation

Tablature Section

Site info Navigation

Whotabs is not affiliated with The Who, its record company or management.