Whotabs – The Definitive Online Tablature and Gear Resource for The Who since 1997

Return to Whotabs

Underture – guitar tab

Underture | guitar tab
By The Who
>From Tommy, 1969
Written by Pete Townshend (c)1969 Fabulous Music Ltd.

#----------------------------------PLEASE NOTE---------------------------------#
#This file is the author's own work and represents their interpretation of the #
#song. You may only use this file for private study, scholarship, or research. #
#------------------------------------------------------------------------------#

==============                                                        
transcribed by      v1 2001-08-26          Whotabs                    
litgo@aol.com     rev2 2011-12-02          www.thewho.net/whotabs     
==============                                                        

Three guitars on record (two 12-string acoustics; one 6-string electric)
Tune down 2 whole steps: C F Bb Eb G C
(Acoustic 2: left channel 12-string acoustic, drop tuning for denoted portion:
 Bb F Bb Eb G C)
(Bass likely tuned down whole step only, notated as D G C F; bass parts approximate)


[strum down slowly to arpeggiate chord]
|[electric]                                                   |
|4------|5---0---|4----|5--0--|4-----|5--0--|4-------|5---0---|
|5------|5---5---|5----|5--5--|5-----|5-----|5-------|5-------|
|4------|4---4---|4----|4--4--|4-----|4-----|4-------|4-------|
|0------|0-------|0----|0--0--|0-----|0-----|0-------|0-------|
|-------|--------|-----|---0--|------|------|--------|--------|
|-------|--------|-----|---0--|------|------|--------|--------|
|[acoustic 1]                                                 |
|4------|5---0---|4----|5--0--|4-----|5--0--|4-------|5---0---|
|5------|5-------|5----|5-----|5-----|5-----|5-------|5-------|
|4------|4-------|4----|4-----|4-----|4-----|4-------|4-------|
|0------|0-------|0----|0-----|0-----|0-----|0-------|0-------|
|0------|0-------|0----|0-----|0-----|0-----|--------|--------|
|0------|0-------|0----|0-(0)-|0-----|0-----|--------|--------|
|[acoustic 2]                                                 |
|4------|----0---|4----|---0--|4-----|---0--|4-------|----0---|
|5------|--------|5----|------|5-----|------|5-------|--------|
|4------|--------|4----|------|4-----|------|4-------|--------|
|0------|--------|0----|------|0-----|------|0-------|--------|
|-------|--------|0----|------|0-----|------|0-------|--------|
|-------|--------|0----|------|0-----|------|0-------|--------|


|[electric 1]                                                  |
|4-------|0---5---|4----|0--5--|4-----|0--5--|4-------|0---5---|
|5-------|5---5---|5----|5--5--|5-----|5-----|5-------|5-------|
|4-------|4-------|4----|4-----|4-----|4-----|4-------|4-------|
|0-------|0-------|0----|0-----|0-----|0-----|0-------|0-------|
|--------|0-------|-----|0-----|0-----|------|0-------|--------|
|--------|0-------|-----|0-----|0-----|------|0-------|--------|
|[acoustic 1]                                                  |
|4-------|0---5---|4----|0--5--|4-----|0--5--|4-------|0---5---|
|5-------|5-------|5----|5-----|5-----|5-----|5-------|5-------|
|4-------|4-------|4----|4-----|4-----|4-----|4-------|4-------|
|0-------|0-------|0----|0-----|0-----|0-----|0-------|0-------|
|0-------|0-------|0----|0-----|0-----|------|0-------|0-------|
|0-------|0-------|0----|0-----|0-----|------|0-------|0-------|
|[acoustic 2]                                                  |
|4-------|--------|4----|------|4-----|------|4-------|0-------|
|5-------|--------|5----|------|5-----|------|5-------|5-------|
|4-------|--------|4----|------|4-----|------|4-------|4-------|
|0-------|--------|0----|------|0-----|------|0-------|0-------|
|0-------|--------|0----|------|0-----|------|0-------|--------|
|0-------|--------|0----|------|0-----|------|0-------|--------|
|[bass]                                                        |
|----7---|----5---|-----|------|------|------|----7---|----5---|
|---7-7--|---5----|-----%------|------%------|---7-7--|---5----|
|5-----5-|3----3--|-----|------|------|------|5-----5-|3----3--|
|--------|--------|-----|------|------|------|--------|--------|


|[electric]                                           |
|2-------|5---0---|4-------|0---5---|4-------|0---5---|
|3-------|3---3---|5-------|5---5---|5-------|5---5---|
|2-------|2---2---|4-------|4-------|4-------|4-------|
|0-------|0---0---|0-------|0-------|0-------|0-------|
|0-------|--------|0-------|0-------|--------|0-------|
|0-------|--------|0-------|0-------|--------|0-------|
|[acoustic 1]                                         |
|2-------|5---0---|4-------|0---5---|4-------|0---5---|
|3-------|3---3---|5-------|5-------|5-------|5-------|
|2-------|2---2---|4-------|4-------|4-------|4-------|
|0-------|0---0---|0-------|0-------|0-------|0-------|
|--------|--------|0-------|0-------|0-------|--------|
|--------|--------|0-------|0-------|0-------|--------|
|[acoustic 2]                                         |
|2-------|--------|4-------|--------|4-------|--------|
|3-------|--------|5-------|--------|5-------|--------|
|2-------|--------|4-------|--------|4-------|--------|
|0-------|--------|0-------|--------|0-------|--------|
|--------|--------|0-------|--------|--------|--------|
|--------|--------|0-------|--------|--------|--------|
|[bass]                                               |
|----5---|----5---|----7---|----7---|----7---|----7---|
|---5-5--|---5----|---7-7--|---7----|---7-7--|---7----|
|3-----3-|3----3--|5-----5-|5-----5-|5-----5-|5-----5-|
|--------|--------|--------|--------|--------|--------|


|[electric]                                       |
|4-------|0---5---|----------4-4-4|4-4------------|
|5-------|5---5---|5-5-5-5-5-5-5-5|5-5-5-5-5------|
|4-------|4-------|4-4-4-4-4-4-4-4|4-4-4-4-4-4-4--|
|0-------|0-------|---------------|----0-0-0-0-0-0|
|--------|--------|---------------|---------------|
|--------|--------|---------------|---------------|
|[acoustic 1]                                     |
|4-------|0---5---|4--------------|---------------|
|5-------|5---5---|5--------------|5-5-5----------|
|4-------|4-------|4-------4-4-4-4|4-4-4-4-4-4-4--|
|0-------|0-------|0-------0-0-0-0|0-0-0-0-0-0-0--|
|--------|--------|---------------|---------------|
|--------|--------|---------------|---------------|
|[acoustic 2]                                     |
|4-------|--------|4--------------|---------------|
|5-------|--------|5--------------|---------------|
|4-------|--------|4--------------|---------------|
|0-------|--------|0--------------|---------------|
|0-------|--------|---------------|---------------|
|0-------|--------|---------------|---------------|
|[bass]                                           |
|----7---|----7---|---------------|---------------|
|---7-7--|---7----|---------------|---------------|
|5-----5-|5-----5-|5-5-5-5-5-5-5-5|5-5-5-5-5-5-5-3|
|--------|--------|---------------|---------------|


[0:46]
|[electric]                                                             |
|--------|-------------|--------|-------------|---------|---------------|
|--------|-------------|--------|-------------|---------|---------------|
|--------|-------------|--------|-------------|---------|-(0)-----------|
|2-0-----|--2-0--------|2-0-----|--2-0--------|0--------|--0------------|
|--------|------3-2-0--|--------|------3-2-0--|--3------|-----3-2-0---0-|
|--------|------------3|--------|------------3|---------|-----------3---|
|[acoustic 1/acoustic 2]                                                |
|--------|-------------|--------|-------------|---------|---------------|
|--------|-------------|--------|-------------|---------|---------------|
|--------|-------------|--------|-------------|---------|---------------|
|2-0-----|--2-0--------|2-0-----|--2-0--------|0--------|--0------------|
|--------|------3-2-0--|--------|------3-2-0--|--3------|-----3-2-0---0-|
|--------|------------3|--------|------------3|---------|-----------3---|
|[bass]                                       |                         |
|--------|-------------|--------|-------------|---------|---------------|
|--------|-------------|--------|-------------|---------|---------------|
|5-3-----|--5-3-1-0----|5-3-----|--5-3-1-0----|3-1------|1-3--1-0-------|
|--------|----------3-1|--------|----------3-1|---------|---------3-1-3-|


|[electric]                                                      |
|----------------|---------------|---------------|---------------|
|----------------|---------------|---------------|---------------|
|----------------|---------------|------4-4-4-4-4|---------------|
|------------4-4-|4-4-4-4-4-4-4-4|4-4-4-4/4/4/4/4|4-4-4-4-4-4-4-4|
|2-2-2-2-2-2-2-2-|2-2-2-2-2-2-2-2|2-2-2-2/2/2/2/2|2-2-2-2-2-2-2-0|
|----------------|---------------|---------------|---------------|
|[acoustic 1]                                                    |
|----------------|---------------|---------------|---------------|
|----------------|---------------|---------------|---------------|
|----------------|---------------|---------------|---------------|
|------------4-4-|4-4-4-4-4-4-4-4|4-4-4-4-4-4-4-4|4-4-4-4-4-4-4-4|
|2-2-2-2-2-2-2-2-|2-2-2-2-2-2-2-2|2-2-2-2-2-2-2-2|2-2-2-2-2-2-2-0|
|----------------|---------------|---------------|---------------|
|[acoustic 2]                                                    |
|----------------|---------------|---------------|---------------|
|----------------|---------------|---------------|---------------|
|----------------|---------------|4-4-4-4-4-4-4-4|4-4-4-4--------|
|----------------|4-4-4-4-4-4-4-4|4-4-4-4-4-4-4-4|4-4-4-4-4------|
|2-2-2-2-2-2-2-2-|2-2-2-2-2-2-2-2|2-2-2-2-2-2-2-2|2-2-2-2-2------|
|----------------|---------------|---------------|---------------|
|[bass]                                                          |
|----------------|---------------|---------------|---------------|
|----------------|---------------|---------------|---------------|
|----------------|---------------|---------------|---------------|
|5-5-5-5-5-5-5-5-|5-5-5-5-5-5-5-5|5-5-5-5-5-5-5-5|5-5-5-5-5-5-5-3|


[1:03]
|[electric]                                                     |
|4---2----------|--4---2---5----|4---2----------|--4---2---5----|
|5---3----------|--5---3---5----|5---3----------|--5---3---5----|
|4---2----------|--4---2---6----|4---2----------|--4---2---6----|
|0-0-0-0-0-0-0-0|--0-0-0-0-0-0-0|0-0-0-0-0-0-0-0|0-0-0-0-0-0-0-0|
|---------------|0--------------|---------------|---------------|
|---------------|---------------|---------------|---------------|
|[acoustic 1]                                                   |
|4---2----------|--4---2---5----|4---2----------|--4---2---5----|
|5---3----------|--5---3---5----|5---3----------|--5---3---5----|
|4---2----------|--4---2---6----|4---2----------|--4---2---6----|
|0-0-0-0-0-0-0-0|0-0-0-0-0-0-0-0|0-0-0-0-0-0-0-0|0-0-0-0-0-0-0-0|
|---------------|---------------|---------------|---------------|
|---------------|---------------|---------------|---------------|
|[acoustic 2]                                                   |
|4---2----------|--4---2---5----|4---2----------|--4---2---4----|
|5---3----------|--5---3---5----|5---3----------|--5---3---5----|
|4---2----------|--4---2---6----|4---2----------|--4---2---4----|
|0-0-0-0-0-0-0-0|0-0-0-0-0-0-0-0|0-0-0-0-0-0-0-0|0-0-0-0-0-0-0-0|
|---------------|---------------|---------------|---------------|
|---------------|---------------|---------------|---------------|
|[bass]                                                         |
|---------------|---------------|---------------|---------------|
|---------------|---------------|---------------|---------------|
|3-3-3-3-3-3-3-3|--------%------|-----%---------|-------%-------|
|---------------|---------------|---------------|---------------|


|[electric]                                                     |
|6---4----------|--6---4---6----|6---4----------|--6---6---6----|
|7---5----------|--7---5---7----|7---5----------|--6---6---6----|
|6---4----------|--6---4---6----|6---4----------|--7---7---7----|
|0-0-0-0-0-0-0-0|0-0-0-0-0-0-0-0|0-0-0-0-0-0-0-0|0-0-0-0-0-0-0-0|
|---------------|---------------|---------------|---------------|
|---------------|---------------|---------------|---------------|
|[acoustic 1/2]                                                 |
|6---4----------|--6---4---6----|6---4----------|--6---6---6----|
|7---5----------|--7---5---7----|7---5----------|--6---6---6----|
|6---4----------|--6---4---6----|6---4----------|--7---7---7----|
|0-0-0-0-0-0-0-0|0-0-0-0-0-0-0-0|0-0-0-0-0-0-0-0|0-0-0-0-0-0-0-0|
|---------------|---------------|---------------|---------------|
|---------------|---------------|---------------|---------------|


|[electric]                                                        |
|6-------6-----6|--6---6---6-6---|6-----6-----6--|--6--------------|
|7-------6-----7|--6---6---6-6---|7-----6-----7--|--6------6-6-----|
|6-------7-----6|--7---7---7-7---|6-----7-----6--|--7---7--7-7-7---|
|0-0-0-0-0-0-0-0|0-0-0-0-0-0-0-0-|0-0-0-0-0-0-0-0|0-0-0-0--0-0-0-0-|
|---------------|----------------|---------------|-----------------|
|---------------|----------------|---------------|-----------------|
|[acoustic 1/2]                                                    |
|6-------6-----6|--6---6---6-6---|6-----6-----6--|--6--------------|
|7-------6-----7|--6---6---6-6---|7-----6-----7--|--6------6---6---|
|6-------7-----6|--7---7---7-7---|6-----7-----6--|--7---7--7---7---|
|0-0-0-0-0-0-0-0|0-0-0-0-0-0-0-0-|0-0-0-0-0-0-0-0|0-0-0-0--0-0-0-0-|
|---------------|----------------|---------------|-----------------|
|---------------|----------------|---------------|-----------------|


|[electric]                     |
|7--------------|---------------|
|8--------------|---------------|
|7--------------|--------7-7-7-7|
|0-0-0-0-0-0-0-0|0-0-0-0-0-0-0-0|
|---------------|---------------|
|---------------|---------------|
|[acoustic 1/2]                 |
|7--------------|---------------|
|8--------------|---------------|
|7--------------|--------7-7-7-7|
|0-0-0-0-0-0-0-0|0-0-0-0-0-0-0-0|
|---------------|---------------|
|---------------|---------------|


|[electric]                                                           |
|7-----8-----7--|--------------------|7-----8-----10-|----------------|
|8-----8-----8--|----10-(8)-10-8-----|8-----8-----8--|---10-8-10-8----|
|7-----7-----7--|----7---7---7-7---7-|7-----7-----7--|7---------------|
|0-0-0-0-0-0-0-0|0-0-0---0---0-0-0-0-|0-0-0-0-0-0-0-0|0-0-0-0--0-0-0-0|
|---------------|--------------------|---------------|----------------|
|---------------|--------------------|---------------|----------------|
|[acoustic 1]                                                         |
|7-----8-----7--|--------------------|7-----8-----10-|10---10-----10--|
|8-----8-----8--|----10-(8)-10-8-----|8-----8-----8--|--8------8-----8|
|7-----7-----7--|----7---7---7-7---7-|7-----7-----7--|----7------7----|
|0-0-0-0-0-0-0-0|0-0-0---0---0-0-0-0-|0-0-0-0-0-0-0-0|----------------|
|---------------|--------------------|---------------|----------------|
|---------------|--------------------|---------------|----------------|
|[acoustic 2]                                                         |
|7-----8-----7--|--------------------|7-----8-----10-|----------------|
|8-----8-----8--|--------------------|8-----8----x8--|----------------|
|7-----7-----7--|--------------------|7-----7----x7--|----------------|
|0-0-0-0-0-0-0-0|0-0-----------------|0-0-0-0-0-0-0-0|--0-0-0--0-0-0--|
|---------------|--------------------|---------------|----------------|
|---------------|--------------------|---------------|----------------|


|[electric]                                                         |
|7---8----------|--7---8---5----|7-----8-----10-|-------------------|
|8---8----------|--8---8---6----|8-----8-----10-|-------------------|
|7---9----------|--7---9---5----|7-----9-----11-|-------------------|
|0-0-0-0-0-0-0-0|0-0-0-0-0-0-0-0|0-0-0-0-0-0-0-0|0-0-0-0-0--0--0--0-|
|---------------|---------------|---------------|-------------------|
|---------------|---------------|---------------|-------------------|
|[acoustic 1]                                                       |
|7---8----------|--7---8---5----|7-----8-----5--|-------------------|
|8---8----------|--8---8---6----|8-----8-----6--|-------------------|
|7---9----------|--7---9---5----|7-----9-----5--|-------------------|
|0-0-0-0-0-0-0-0|0-0-0-0-0-0-0-0|0-----0-----0--|--0-0-0-0--0--0--0-|
|---------------|---------------|---------------|-------------------|
|---------------|---------------|---------------|-------------------|
|[acoustic 2                                                        |
|7--------------|---------------|---------------|-------------------|
|8--------------|---------------|---------------|-------------------|
|7--------------|---------------|---------------|-------------------|
|0-0-0-0-0-0-0-0|0-0-0-0-0-0-0-0|0-----0-----0--|--0-0-0-0--0--0--0-|
|---------------|---------------|---------------|-------------------|
|---------------|---------------|---------------|-------------------|


|[electric, acoustic 1/2]                                        |
|7---8----------|--7---8---5----|7-----8-----10-|----------------|
|8---8----------|--8---8---6----|8-----8-----10-|----------------|
|7---9----------|--7---9---5----|7-----9-----11-|----------11----|
|0-0-0-0-0-0-0-0|0-0-0-0-0-0-0-0|0-0-0-0-0-0-0-0|-0-0-0-0-0-0-0-0|
|---------------|---------------|---------------|----------------|
|---------------|---------------|---------------|----------------|


|[electric, acoustic 1]                                           |
|11-------------|10--------------|8--------------|10--------------|
|12-------------|10--------------|8--------------|10--------------|
|11-------------|11--------------|9--------------|11--------------|
|0-0-0-0-0-0-0-0|-0-0-0-0-0-0-0-0|0-0-0-0-0-0-0-0|-0-0-0-0-0-0-0-0|
|---------------|----------------|---------------|----------------|
|---------------|----------------|---------------|----------------|
|[acoustic 2]                                                     |
|11-------------|10--------------|8---------8----|10--------------|
|12-------------|10--------------|8--------8-----|10--------------|
|11-------------|11--------------|9-------9------|11--------------|
|0-0-0-0-0-0-0-0|-0-0-0-0-0-0-0-0|0-0-0-0-------0|-0-0-0-0-0-0-0-0|
|---------------|----------------|---------------|----------------|
|---------------|----------------|---------------|----------------|


|[electric, acoustic 1]           |
|11------10------|11------10------|
|12------10------|12------10------|
|11------11------|11------11------|
|-0-0-0-0-0-0-0-0|-0-0-0-0-0-0-0-0|
|----------------|----------------|
|----------------|----------------|
|[acoustic 2]                     |
|11------10------|11------10------|
|12------10------|12------10------|
|11------11------|11------11------|
|-0-0-0-0-0-0-0-0|-0-0-0-0-0-0-0-0|
|----------------|----------------|
|----------------|----------------|


|[electric]                                                |
|11--10--11--10--|--------------------|------------------0-|
|12--10--12--10--|12-12-12-12-12-12-12|12-12-12-12-12-12-0-|
|11--11--11--11--|11-11-11-11-11-11-11|11-11-11-11-11-11-0-|
|-0-0-0-0-0-0-0-0|---9--9--9--9--9--9-|9--9--9--9--9--9----|
|----------------|--------------------|--------------------|
|----------------|--------------------|--------------------|
|[acoustic 1]                                              |
|11--10--11--10--|---------------11-11|11-11-11-11-11------|
|12--10--12--10--|12-12-12-12-12-12-12|12-12-12-12-12-12---|
|11--11--11--11--|11-11-11-11-11-11-11|11-11-11-11-11-11---|
|-0-0-0-0-0-0-0-0|--------------------|--------------------|
|----------------|--------------------|--------------------|
|----------------|--------------------|--------------------|
|[acoustic 2]                                              |
|11--10--11--10--|--------------------|------7--7--7-------|
|12--10--12--10--|--------------------|------0--0--0-0-0---|
|11--11--11--11--|--------------------|4-------------------|
|-0-0-0-0-0-0-0-0|---------------4--4-|4-------------------|
|----------------|2--2--2--2--2--2--2-|2-------------------|
|----------------|--------------------|--------------------|
|[bass]                                                    |
|----------------|--------------------|--------------------|
|----------------|--------------------|--------------------|
|-3-3-3-3-3-3-3--|--------------------|--------------------|
|---------------3|5--5--5--5--5--5--5-|5--5--5--5--5-------|


[2:05]
 Ahhh...
|[electric]                                                             |
|0-0-0-0-|---%----|----%---|----%---|---%----|----%---|----%---|-----%--|
|-5-5-5-5|--------|--------|--------|--------|--------|--------|--------|
|--------|--------|--------|--------|--------|--------|--------|--------|
|--------|--------|--------|--------|--------|--------|--------|--------|
|--------|--------|--------|--------|--------|--------|--------|--------|
|--------|--------|--------|--------|--------|--------|--------|--------|
|[acoustic 1]                                                           |
|--------|--------|--------|--------|--------|--------|--------|--------|
|--------|--------|--------|--------|--------|--------|--------|--------|
|-----999|9.......|9.......|8....../|12......|11......|9.......|8.......|
|--------|--------|--------|--------|--------|--------|--------|--------|
|--------|--------|--------|--------|--------|--------|--------|--------|
|--------|--------|--------|--------|--------|--------|--------|--------|
|                                                                       |
|0.......|--------|0.------|--------|--------|--------|--------|--------|
|0.......|----%---|0.------|---%----|---%----|----%---|---%----|----%---|
|9.......|--------|9.------|--------|--------|--------|--------|--------|
|--------|--------|9.------|--------|--------|--------|--------|--------|
|--------|--------|--------|--------|--------|--------|--------|--------|
|--------|--------|--------|--------|--------|--------|--------|--------|
[tremolo-pick in triplets]

|[electric]                                                             |
|---%----|----%---|----%---|-----%--|---%----|----%---|----%---|-----%--|
|--------|--------|--------|--------|--------|--------|--------|--------|
|--------|--------|--------|--------|--------|--------|--------|--------|
|--------|--------|--------|--------|--------|--------|--------|--------|
|--------|--------|--------|--------|--------|--------|--------|--------|
|--------|--------|--------|--------|--------|--------|--------|--------|
|                                                                       |
|--------|--------|--------|--------|--------|--------|--------|--------|
|--------|--------|--------|--------|--------|--------|--------|--------|
|12......|11......|9.......|8.......|12......|11......|9...8...|5...4...|
|--------|--------|--------|--------|--------|--------|--------|--------|
|--------|--------|--------|--------|--------|--------|--------|--------|
|--------|--------|--------|--------|--------|--------|--------|--------|
|                                   |                                   |
|--------|--------|--------|--------|--------|--------|--------|--------|
|---%----|----%---|---%----|----%---|---%----|----%---|---%----|----%---|
|--------|--------|--------|--------|--------|--------|--------|--------|
|--------|--------|--------|--------|--------|--------|--------|--------|
|--------|--------|--------|--------|--------|--------|--------|--------|
|--------|--------|--------|--------|--------|--------|--------|--------|


|[electric]           |
|-----%----|0000000-0-|
|----------|--------0-|
|----------|--------0-|
|----------|----------|
|----------|----------|
|----------|----------|
|[acoustic 1]         |
|----------|----------|
|--0...0...|0...------|
|--0...0...|0...------|
|7/9...7...|5...4-2-0-|
|----------|----------|
|----------|----------|
|[acoustic 2]         |
|0---------|0...------|
|0---------|0...------|
|9---------|9...------|
|9---------|9...------|
|----------|----------|
|----------|----------|

[2:38]
|[electric]                                                   |
|4----|5---0---|4----|5---0---|4-----|5---0---|4-----|5---0---|
|5----|5---5---|5----|5---5---|5-----|5---5---|5-----|5---5---|
|4----|4---4---|4----|4---4---|4-----|4---4---|4-----|4---4---|
|0----|0---0---|0----|0---0---|0-----|0---0---|0-----|0---0---|
|0----|0---0---|0----|--------|------|0-------|------|0-------|
|0----|0---0---|0----|--------|------|0-------|------|0-------|
|[acoustic 1]                                                 |
|4----|5---0---|4----|5---0---|4-----|5---0---|4-----|5---0---|
|5----|5---5---|5----|5---5---|5-----|5---5---|5-----|5-------|
|4----|4---4---|4----|4---4---|4-----|4---4---|4-----|4-------|
|0----|0---0---|0----|0---0---|0-----|0---0---|0-----|0-------|
|0----|0---0---|0----|0-------|------|--------|------|0-------|
|0----|0---0---|0----|0-------|------|--------|------|0-------|
|[acoustic 2]                                                 |
|4----|----0---|4----|--------|4-----|--------|4-----|--------|
|5----|--------|5----|--------|5-----|--------|5-----|--------|
|4----|--------|4----|--------|4-----|--------|4-----|--------|
|0----|--------|0----|--------|0-----|--------|0-----|--------|
|-----|--------|0----|--------|0-----|--------|0-----|--------|
|-----|--------|0----|--------|0-----|--------|0-----|--------|
|[bass]                                                       |
|--7--|----5---|-----|--------|------|--------|---7--|----5---|
|-7-7-|---5----|-----%--------|------%--------|--7-7-|---5----|
|5---5|3----3--|-----|--------|------|--------|5----5|3----3--|
|-----|--------|-----|--------|------|--------|------|--------|


|[electric]                                                     |
|2----|5---0---|4----|5---0---|4-----|5---0---|--------|--------|
|3----|3---3---|5----|5---5---|5-----|5---5---|5-------|--------|
|2----|2---2---|4----|4---4---|4-----|4---4---|44444444|4444444-|
|0----|0---0---|0----|0---0---|0-----|0-------|22222222|22222220|
|-----|--------|-----|0-------|------|0-------|--------|--------|
|-----|--------|-----|0-------|------|0-------|--------|--------|
|[acoustic 1]                                                   |
|2----|5---0---|4----|5---0---|4-----|5---0---|4-------|--------|
|3----|3---3---|5----|5---5---|5-----|5---5---|5-------|--------|
|2----|2---2---|4----|4---4---|4-----|4---4---|4-------|--------|
|0----|0---0---|0----|0---0---|0-----|0---0---|0-------|---0000-|
|-----|--------|0----|--------|0-----|--------|--------|--------|
|-----|--------|0----|--------|0-----|--------|--------|--------|
|[acoustic 2]                                                   |
|2----|--------|4----|--------|4-----|--------|0-------|--------|
|3----|--------|5----|--------|5-----|--------|0-------|--------|
|2----|--------|4----|--------|4-----|--------|--------|--------|
|0----|--------|0----|--------|0-----|--------|--------|--------|
|0----|--------|0----|--------|0-----|---<7>--|--------|--------|
|0----|--------|0----|--------|0-----|--------|--------|--------|
|[bass]                                                         |
|--5--|----5---|--7--|----7---|--7---|----7---|--------|--------|
|-5-5-|---5----|-7-7-|---7----|-7-7--|---7----|--------|--------|
|3---3|3----3--|5---5|5-----5-|5---5-|5-----5-|55555555|55555555|
|-----|--------|-----|--------|------|--------|--------|--------|

[3:06]
|[electric]                                                        |
|2--------------|2--------------|3--------------|3-----------------|
|3-----3-3------|3-----3-3------|3--------------|3-----------------|
|2-----2-2------|2-----2-2------|0--------------|0-----------------|
|0---0-0-0-0-0-0|0---0-0-0-0-0--|0---0-0-0-0-0-0|0---0-0-0-0-0-----|
|---------------|---------------|---------------|------------------|
|---------------|--------------3|----3---3-0-3--|3---3-3-3-3-0-----|
|                                                                  |
|2--------------|2------------5-|3--------------|3-----------------|
|3-----3-3------|3-----3-3---3-3|3-----3-3------|3-----3-3---------|
|2-----2-2------|2-----2-2------|0-----0-0------|0-----0-0---------|
|0-----0-0------|0-----0-0------|0-----0-0------|0-----0-0---------|
|---------------|---------------|---------------|------------------|
|---------------|---------------|3--------------|3-----3-3-3-------|
|                                                                  |
|3--------------|---------------|3--------------|------------------|
|3--------------|3--------------|3------3-5-3-5/|3-5-3-5/7---3-5-3-|
|---------------|2------------2-|---------------|------------------|
|--------------0|------------0-0|---------------|------------------|
|---------------|---------------|---------------|------------------|
|---------------|---------------|---------------|------------------|
|[bass]                                                            |
|---------------|---------------|------5--------|------5-----------|
|------5-5-5-5--|------5-5-5-5-0|3-3-3------0-3-|3-3-3-------3-3---|
|3-3-3---------0|3-3-3----------|---------------|----------------0-|
|---------------|---------------|---------------|------------------|


|[electric]                                                      |
|2--------------|---------------|----------------|---------------|
|3--------------|3--------------|----------------|---------------|
|2-----2-2-2-2-2|2-2-2-2-2-2-2--|--------------4-|4-4-4-4-4-4-4--|
|0-0-0-0-0-0-0-0|0-0-0-0-0-0-0-0|4-4-4-4-4-4-4-4-|4-4-4-4-4-4-4--|
|---------------|--------------0|2-2-2-2-2-2-2-2-|2-2-2-2-2-2-2-0|
|---------------|---------------|----------------|---------------|
|[acoustic 1]                                                    |
|2-----2-2------|2-----2-2------|----------------|---------------|
|3-----3-3------|3-----3-3------|----------------|---------------|
|2-----2-2------|2-----2-2------|----4-4-4-4-4---|---------------|
|0-----0-0------|0-----0-0-----0|4-4-4-4-4-4-4-4-|4-4-4-4-4------|
|---------------|---------------|2-2-2-2-2-2-2-2-|2-2-2-2-2------|
|---------------|---------------|----------------|---------------|
|[acoustic 2]                                                    |
|---------------|0h2-3---2-3----|----------------|---------------|
|5p3------------|3---3---3-3----|----------------|---------------|
|---------------|2---2---2-2----|----------------|---------------|
|---------------|0--------------|----------------|---------------|
|---------------|---------------|2-2-2-2-2-2-2-2-|2-2-2-2-2-2-2--|
|---------------|---------------|----------------|---------------|
|[bass]                                                          |
|---------------|---------------|----------------|---------------|
|----5-5--------|------5--------|----------------|---------------|
|3-------3----0-|3-3-3-----3----|----------------|---------------|
|---------------|-------------3-|5-5-5-5-5-5-5-5-|5-5-5-5-5-5-5--|

[3:21]
[electric, acoustic 1/2]                                            |
|------|--------------|-------|-------------|-------|---------------|
|------|--------------|-------|-------------|-------|---------------|
|------|--------------|-------|-------------|-------|---------------|
|2-0---|--2-0---------|2-0----|--2-0--------|0------|--0------------|
|------|------3-2-0---|-------|------3-2-0--|--3----|-----3-2-0---0-|
|------|------------3-|-------|------------3|-------|-----------3---|


|[electric]                                                      |
|----------------|---------------|---------------|---------------|
|----------------|---------------|---------------|---------------|
|----------------|---------------|---------------|---------------|
|4---4-4-4-4-4-4-|4-4-4-4-4-4-4-4|4-4-4-4-4-4-4-4|4-4-4-4-4-4-4--|
|2---2-2-2-2-2-2-|2-2-2-2-2-2-2-2|2-2-2-2-2-2-2-2|2-2-2-2-2-2-2-0|
|----------------|---------------|---------------|---------------|
|[acoustic 1]                                                    |
|----------------|---------------|---------------|---------------|
|----------------|---------------|---------------|---------------|
|----------------|---------------|4-4-4-4-4-4-4-4|4-4-4-4-4-4----|
|4---4-4-4-4-4-4-|4-4-4-4-4-4-4-4|4-4-4-4-4-4-4-4|4-4-4-4-4-4----|
|2---2-2-2-2-2-2-|2-2-2-2-2-2-2-2|2-2-2-2-2-2-2-2|2-2-2-2-2-2----|
|----------------|---------------|---------------|---------------|
|[acoustic 2]                                                    |
|----------------|---------------|---------------|---------------|
|----------------|---------------|---------------|---------------|
|----------------|---------------|--4-4-4-4-4-4-4|4-4-4-4-4-4----|
|----------------|---------------|4-4-4-4-4-4-4-4|4-4-4-4-4-4---0|
|2---------------|2---2---2---2--|2-2-2-2-2-2-2-2|2-2-2-2-2-2----|
|----------------|---------------|---------------|---------------|

[3:39]
|[electric, acoustic 1]                                         |
|4---2----------|--4---2---5----|4---2----------|--4---2---4----|
|5---3----------|--5---3---5----|5---3----------|--5---3---5----|
|4---2----------|--4---2---6----|4---2----------|--4---2---4----|
|0-0-0-0-0-0-0-0|0-0-0-0-0-0-0-0|0-0-0-0-0-0-0-0|0-0-0-0-0-0-0-0|
|---------------|---------------|---------------|---------------|
|---------------|---------------|---------------|---------------|
|[acoustic 2]                                                   |
|4---2----------|--4---2---5----|4---2----------|---------------|
|5---3----------|--5---3---5----|5---3----------|---------------|
|4---2----------|--4---2---6----|4---2----------|7-7-7-7-7-7-7-7|
|0-0-0-0-0-0-0-0|0-0-0-0-0-0-0-0|0-0-0-0-0-0-0-0|0-0-0-0-0-0-0-0|
|---------------|---------------|---------------|---------------|
|---------------|---------------|---------------|---------------|


|[electric]                                                      |
|6---4----------|--6---4---6----|6-----6-----6--|--6-----6---6---|
|7---5----------|--7---5---7----|7-----6-----6--|--6-----6---6---|
|6---4----------|--6---4---6----|6-----7-----7--|--7-----7---7---|
|0-0-0-0-0-0-0-0|0-0-0-0-0-0-0-0|0-0-0-0-0-0-0-0|0-0-0-0-0-0-0-0-|
|---------------|---------------|---------------|----------------|
|---------------|---------------|---------------|----------------|
|[acoustic 1]                                                    |
|6---4----------|--6---4---6----|6-----------6--|--6-----6---6---|
|7---5----------|--7---5---7----|7-----------6--|--6-----6---6---|
|6---4----------|--6---4---6----|6-----------7--|--7-----7---7---|
|0-0-0-0-0-0-0-0|0-0-0-0-0-0-0-0|0-0-0-0-0-0-0-0|0-0-0-0-0-0-0-0-|
|---------------|---------------|---------------|----------------|
|---------------|---------------|---------------|----------------|
|[acoustic 2]                                                    |
|---------------|---------------|------------10-|----------------|
|---------------|---------------|---------------|----------------|
|7-7-7-7-7-7-7-7|7-7-7-7-7-7-7-7|7-7-7-7-7-7-7-7|----------------|
|0-0-0-0-0-0-0-0|0-0-0-0-0-0-0-0|0-0-0-0-0-0-0-0|0-0-0-0-0-0-0-0-|
|---------------|---------------|---------------|----------------|
|---------------|---------------|---------------|----------------|


|[electric]                                                        |
|6-----6-----6---|--6------6---6---|7--------------|---------------|
|7-----6-----7---|--6------6---6---|8--------------|----8-8--------|
|6-----7-----6---|--7------7---7---|7-----7-7-7-7-7|7-7-7-7-7-7----|
|0-0-0-0-0-0-0-0-|0-0-0-0--0-0-0-0-|0-0-0-0-0-0-0-0|0-0-0-0-0-0-0-0|
|----------------|-----------------|---------------|---------------|
|----------------|-----------------|---------------|---------------|
|[acoustic 1]                                                      |
|6-----6-----6---|--6------6---6---|7--------------|---------------|
|7-----6-----7---|--6------6---6---|8--------------|----8-8--------|
|6-----7-----6---|--7------7---7---|7-----7-7-7-7-7|7-7-7-7-7-7----|
|0-0-0-0-0-0-0-0-|0-0-0-0--0-0-0-0-|0-0-0-0-0-0-0-0|0-0-0-0-0-0-0-0|
|----------------|-----------------|---------------|---------------|
|----------------|-----------------|---------------|---------------|
|[acoustic 2]                                                      |
|10----10----10--|--10-----10--10--|----------7-7-7|7--------------|
|----------------|-----------------|----------8-8-8|8--------------|
|7-7-7-7-7-7-7-7-|7-7-7-7--7-7-7-7-|----7-7-7-7-7-7|7---------7-7-7|
|0-0-0-0-0-0-0-0-|0-0-0-0--0-0-0-0-|0-0-0-0-0-0-0-0|--0-0-0-0-0-0-0|
|----------------|-----------------|---------------|---------------|
|----------------|-----------------|---------------|---------------|


|[electric]                                                          |
|7-----8-----7--|------------------|7-----8------7--|----------------|
|--8-----8-----8|----10---10---8---|--8-----8-------|----------------|
|----7-----7----|7-----------------|----7-----7-----|--------7-7-----|
|0--------------|--0----0--------0-|----------------|0-0-0-0-0-0-0-0-|
|---------------|------------------|----------------|----------------|
|---------------|------------------|----------------|----------------|
|[acoustic 1]                                                        |
|7-----8-----7--|------------------|7-----8-----10--|---10-10-10-10--|
|8-----8-----8--|----10(8)10-8-----|8-----8-----8---|----8-8---8-8---|
|7-----7-----7--|----7--7--7-7---7-|7-----7-----7---|----------------|
|0-0-0-0-0-0-0-0|0-0-0--0--0-0-0-0-|0-0-0-0-0-0-0-0-|0-0-0-0-0-0-0-0-|
|---------------|------------------|----------------|----------------|
|---------------|------------------|----------------|----------------|
|[acoustic 2]                                                        |
|7-----8-----7--|------------------|7-----8-----10--|----------------|
|8-----8-----8--|----10(8)10-8-----|8-----8-----8---|----------------|
|7-----7-----7--|----7--7--7-7---7-|7-----7-----7---|--------7/7/7/7-|
|0-----0-----0--|----0--0--0-0---0-|0-----0-----0---|------0-0/0/0/0-|
|---------------|------------------|----------------|----------------|
|---------------|------------------|----------------|----------------|


|[electric]                                                      |
|-7------5------|--7-x-8---5----|7-----8------5-|----------------|
|-8------6------|--8-x-8---6----|8-----8------6-|----------------|
|-7------5------|--7-x-9---5----|7-----9------5-|-------5-5-5-5-5|
|0-0-0-0-0-0-0-0|0-0-0-0-0-0-0-0|0-0-0-0-0-0-0-0|-0-0-0-0-0-0-0-0|
|---------------|---------------|---------------|----------------|
|---------------|---------------|---------------|----------------|
|[acoustic 1]                                                    |
|-7------5------|--7---8---5----|7-----8------5-|----------------|
|-8------6------|--8---8---6----|8-----8------6-|---------0---0--|
|-7------5------|--7---9---5----|7-----9------5-|---------0---0--|
|0-0-0-0-0-0-0-0|0-0-0-0-0-0-0-0|0-0-0-0-0-0-0-0|-0-0-0-0-0-0-0-0|
|---------------|---------------|---------------|----------------|
|---------------|---------------|---------------|----------------|
|[acoustic 2]                                                    |
|---------------|---------------|---------------|----------------|
|---------------|---------------|---------------|----------------|
|---------------|7-7-7-7-7-7-7-7|7-7-7-7-7-7-7-7|-7/7/7/7/7/7-7-7|
|--------0---0--|0-0-0-0-0-0-0-0|0-0-0-0-0-0-0-0|-0/0/0/0/0/0-0-0|
|---------------|---------------|---------------|----------------|
|---------------|---------------|---------------|----------------|


|[electric]                                                      |
|-7---8---------|--7---8---5----|7-----8-----10-|----------------|
|-8---8---------|--8---8---6----|8-----8-----10-|----------------|
|-7---9---------|--7---9---5----|7-----9-----11-|----------------|
|0-0-0-0-0-0-0-0|0-0-0-0-0-0-0-0|0-0-0-0-0-0-0-0|-0-0-0-0-0-0-0-0|
|---------------|---------------|---------------|----------------|
|---------------|---------------|---------------|----------------|
|[acoustic 1]                                                    |
|7---8----------|--7---8---5----|7-----8-----10-|----------------|
|8---8----------|--8---8---6----|8-----8-----10-|----------------|
|7---9----------|--7---9---5----|7-----9-----11-|----------------|
|0-0-0-0-0-0-0-0|0-0-0-0-0-0-0-0|0-0-0-0-0-0-0-0|-0-0-0-0-0-0-0-0|
|---------------|---------------|---------------|----------------|
|---------------|---------------|---------------|----------------|
|[acoustic 2]                   [w/ drop tuning *]               |
|---------------|---------------|---------------|----------------|
|---------------|---------------|---------------|----------------|
|7-7-7-7-7-7-7-7|7-7-7-7-7-7-7-7|---------------|----------------|
|0-0-0-0-0-0-0-0|0-0-0-0-0-0-0-0|0--------------|----------------|
|---------------|---------------|---------------|----------------|
|---------------|---------------|--0-0-0-0-0-0-0|00-0-0-0-0-0-0-0|


|[electric]                                                       |
|11-------------|10--------------|8--------------|10--------------|
|12-------------|10--------------|8--------------|10--------------|
|11-------------|11--------------|9--------------|11--------------|
|0-0-0-0-0-0-0-0|-0-0-0-0-0-0-0-0|0-0-0-0-0-0-0-0|-0-0-0-0-0-0-0-0|
|---------------|----------------|---------------|----------------|
|---------------|----------------|---------------|----------------|
|[acoustic 1]                                                     |
|11-------------|----------------|8--------------|10--------------|
|12-------------|----------------|8--------------|10--------------|
|11-------------|----------------|9--------------|11--------------|
|0--------------|----------------|0-0-0-0-0-0-0-0|-0-0-0-0-0-0-0-0|
|---------------|----------------|---------------|----------------|
|---------------|----------------|---------------|----------------|
|[acoustic 2; w/ drop tuning*]                                    |
|---------------|----------------|---------------|----------------|
|---------------|----------------|---------------|----------------|
|---------------|----------------|---------------|----------------|
|---------------|----------------|0-----0-0/0/0/0|----------------|
|---------------|----------------|---------------|----------------|
|0-0-0-0-0-0-0-0|00-0-0-0-0-0-0-0|---------------|-0-0-0-0-0-0-0-0|
                                                 [palm mute       ]


|[electric]                                                      |
|7------10------|7------10------|7--10--11--10--|11--10--11--10--|
|7------10------|7------10------|7--10--12--10--|12--10--12--10--|
|8------11------|8------11------|8--11--11--11--|11--11--11--11--|
|0-0-0-0-0-0-0-0|0-0-0-0-0-0-0-0|0-0-0-0-0-0-0-0|-0-0-0-0-0-0-0-0|
|---------------|---------------|---------------|----------------|
|---------------|---------------|---------------|----------------|
|[acoustic 1]                                                    |
|---------------|---------------|---------------|----------------|
|---------------|---------------|---------------|----------------|
|---------------|---------------|---------------|----------------|
|0-0-0-0-0-0-0-0|0-0-0-0-0-0-0-0|0-0-0-0-0-0-0-0|-0-0-0-0-0-0-0-0|
|---------------|---------------|---------------|----------------|
|---------------|---------------|---------------|----------------|
|[acoustic 2; w/ drop tuning*]                                   |
|---------------|---------------|---------------|----------------|
|---------------|---------------|---------------|----------------|
|---------------|---------------|---------------|----------------|
|---------------|---------------|---------------|----------------|
|---------------|---------------|5--------------|----------------|
|0--------------|0--------------|0-------0------|-0---0---0---0--|

[4:37]
|[electric]                                                        |
|4-------|5---0---|4----|5---0---|4-----|0---5---|4-------|0---0---|
|5-------|5---5---|5--55|5---5---|5-----|5-------|5-------|5---0---|
|4-------|4-------|4--4-|4---4---|4-----|4-------|4-------|4---4\--|
|0-------|0-------|0----|0---0---|0-----|0-------|0-------|0-------|
|0-------|0-------|-----|----0---|------|--------|0-------|0-------|
|0-------|0-------|-----|----0---|------|--------|0-------|0-------|
|[acoustic 1]                                                      |
|4-------|5---0---|4----|5---0---|4-----|5---0---|4-------|0---5---|
|5-------|5---5---|5----|5---5---|5-----|5-------|5-------|5-------|
|4-------|4---4---|4----|4---4---|4-----|4-------|4-------|4-------|
|0-------|0---0---|0----|0---0---|0-----|0-------|0-------|0-------|
|0-------|0---0---|0----|----0---|0-----|0-------|0-------|0-------|
|0-------|0---0---|0----|----0---|0-----|0-------|0-------|0-------|
|[acoustic 2 w/ drop tuning]                                       |
|4-------|5-------|4----|--------|4-----|--------|4-------|--------|
|5-------|5-------|5----|--------|5-----|--------|5-------|--------|
|4-------|4-------|4----|--------|4-----|--------|4-------|--------|
|0-------|0-------|0----|--------|0-----|--------|0-------|--------|
|--------|--------|0----|--------|0-----|--------|0-------|--------|
|--------|--------|0----|--------|0-----|--------|0-------|--------|


|[electric]                                                             |
|2-------|3---2---|4-------|0---5---|4-------|0---5---|4-------|0---5---|
|3-------|3---3---|5-------|5-------|5-------|5---5---|5-------|5---5---|
|2-------|2---2---|4-------|4-------|4-------|4-------|4-------|4---4---|
|0-------|0---0---|--------|0-------|0-------|0-------|0-------|0-------|
|0-------|0---0---|--------|0-------|--------|--------|--------|--------|
|0-------|0---0---|--------|0-------|--------|--------|--------|--------|
|[acoustic 1]                                                           |
|2-------|5---2---|4-------|0---5---|4-------|0---5---|4-------|0---5---|
|3-------|3---3---|5-------|5-------|5-------|5-------|5-------|5-------|
|2-------|2---2---|4-------|4-------|4-------|4-------|4-------|4-------|
|0-------|0---0---|0-------|0-------|0-------|0-------|0-------|0-------|
|0-------|0---0---|0-------|0-------|--------|--------|--------|0-------|
|0-------|0---0---|0-------|0-------|--------|--------|--------|0-------|
|[acoustic 2; w/ drop tuning]                                           |
|--------|--------|--------|--------|--------|--------|4-------|--------|
|3-------|--------|5-------|--------|5-------|--------|5-------|--------|
|2-------|--------|4-------|--------|4-------|--------|4-------|--------|
|0-------|--------|0-------|--------|0-------|--------|0-------|--------|
|0-------|--------|0-------|--------|0-------|--------|--------|--------|
|0-------|--------|0-------|--------|0-------|--------|--------|--------|


|[electric]                        |
|4-------|0------|--------|--------|
|5--55555|5555555|55555555|55555555|
|4--44444|-444444|44444444|44444444|
|0-------|-------|00000000|00000000|
|--------|-------|--------|--------|
|--------|-------|--------|--------|
|[acoustic 1]                      |
|4-------|-------|---44444|44444444|
|5-------|5--5---|5--55555|55555555|
|4-------|4------|4--44444|44444444|
|0-------|0------|0--00000|00000000|
|0-------|-------|--------|--------|
|0-------|-------|--------|--------|
|[acoustic 2]                      |
|4-------|-------|4-------|--------|
|5-------|-------|5-------|--------|
|4-------|-------|4-------|--------|
|0-------|-------|0-------|--------|
|--------|-------|--------|--------|
|--------|-------|--------|--------|
|[bass]                            |
|--------|-------|--------|--------|
|--------|-------|--------|--------|
|--------|-------|5---5555|55555555|
|--------|-------|--------|--------|

[5:12]
 Ahhh...
|[electric]                         |
|5--4--5-|-4--7---|5--4--0-|-0--0--0|
|-5--5--5|--5---5-|-5--5--5|--5--5--|
|--4--4--|4--4---4|--4--4--|4--4--4-|
|(0)-----|-----0--|--------|--0-0--0|
|--------|--------|--------|--------|
|--------|--------|--------|--------|
|[acoustic 1]                       |
|44444444|--------|--------|00000000|
|55555555|---%----|----%---|55555555|
|44444444|--------|--------|--------|
|00000000|--------|--------|--------|
|--------|--------|--------|--------|
|--------|--------|--------|--------|
|[acoustic 2]                       |
|---0-0-0|-0-0-0-0|-0-0-0-0|-0-0-0-0|
|----5-5-|5-5-5-5-|5-5-5-5-|5-5-5-5-|
|--------|--------|--------|--------|
|--------|--------|--------|--------|
|--------|--------|--------|--------|
|--------|--------|--------|--------|
|[bass]                             |
|--------|--------|--------|--------|
|--------|--------|--------|--------|
|55555555|----%---|----%---|----%---|
|--------|--------|--------|--------|


 Ahhh...                             Ahhh...
|[electric]                                           |
|--0--0--|0--0----|5--0--0-|-0--0--0|--------|--------|
|5--5--5-|-3--3---|-5--5--5|--5--5--|5-------|--------|
|-4--4--4|--2--2--|--4--4--|4--4--4-|---44444|4-------|
|--------|----0--0|--------|-----0--|--000000|00000000|
|--------|--------|--------|--------|--------|--------|
|--------|--------|--------|--------|--------|--------|
|[acoustic 1]                                         |
|0-0-0-0-|0-0-0-0-|0-0-0-0-|-0-0-0-0|-0-0-0-0|-0-0----|
|-5-5-5-5|-5-5-5-5|-5-5-5-5|5-5-5-5-|5-5-5-5-|5-5---5-|
|--------|--------|--------|--------|--------|--------|
|--------|--------|--------|--------|--------|--------|
|--------|--------|--------|--------|--------|--------|
|--------|--------|--------|--------|--------|--------|
|[acoustic 2]                                         |
|0-0-0-0-|0-0-0-0-|0-0-0-0-|0-0-----|--------|--------|
|-5-5-5-5|-5-5-5-5|-5-5-5-5|-5-5----|--------|--------|
|--------|--------|--------|--------|--------|--------|
|--------|--------|--------|--------|--------|--------|
|--------|--------|--------|--------|--------|--------|
|--------|--------|--------|--------|--------|--------|
|[bass]                                               |
|--------|--------|--------|--------|--------|--------|
|--------|--------|--------|--------|--------|--------|
|---%----|---%----|555555x5|55555555|55555555|55555553|
|--------|--------|--------|--------|--------|--------|

[5:30]
[electric/acoustic 1/2]                                             |
|------|--------------|-------|-------------|-------|---------------|
|------|--------------|-------|-------------|-------|---------------|
|------|--------------|-------|-------------|-------|---------------|
|2-0---|--2-0---------|2-0----|--2-0--------|0------|--0------------|
|------|------3-2-0---|-------|------3-2-0--|--3----|-----3-2-0---0-|
|------|------------3-|-------|------------3|-------|-----------3---|
|[acoustic 2; w/ drop tuning]                                       |
|------|--------------|-------|-------------|-------|---------------|
|------|--------------|-------|-------------|-------|---------------|
|------|--------------|-------|-------------|-------|---------------|
|2-0---|--2-0---------|2-0----|--2-0--------|0------|--0------------|
|------|------3-2-0---|-------|------3-2-0--|--3----|-----3-2-0---0-|
|------|------------5-|-------|------------5|-------|-----------5---|


|[electric]                                                     |
|---------------|---------------|---------------|---------------|
|---------------|---------------|---------------|---------------|
|-----------4-4-|4-4-4-4-4-4-4-4|4-4-4-4-4-4-4-4|4-4-4-4-4-4-4-4|
|-----------4-4-|4-4-4-4-4-4-4-4|4-4-4-4-4-4-4-4|4-4-4-4-4-4-4-4|
|2--2-2-2-2-2-2-|2-2-2-2-2-2-2-2|2-2-2-2-2-2-2-2|2-2-2-2-2-2-2-2|
|---------------|---------------|---------------|---------------|
|[acoustic 1]                                                   |
|---------------|---------------|---------------|---------------|
|---------------|---------------|---------------|---------------|
|---------------|---------------|--4-----4------|--4-----4------|
|---------------|---------------|----4-----4---4|----4-----4----|
|2--2-2-2-2-2-2-|2-2-2-2-2-2-2-2|2-----2-----2--|2-----2-----2-2|
|---------------|---------------|---------------|---------------|
|[acoustic 2]                                                   |
|---------------|---------------|---------------|---------------|
|---------------|---------------|0-------0------|-----0--0---0--|
|---------------|--------------4|------4----4---|---4------4----|
|---------------|---------------|--------------0|---------------|
|2------------22|2-------2-2-2--|----2----------|2--------------|
|---------------|---------------|---------------|---------------|


|[electric]                                                     |
|---------------|---------------|---------------|---------------|
|---------------|---------------|---------------|---------------|
|4-4-4-4-4-4-4-4|4-4-4-4-4-4-4-4|4-4-4-4-4-4-4-4|4-4-4-4-4-4-4--|
|4-4-4-4-4-4-4-4|4-4-4-4-4-4-4-4|4-4-4-4-4-4-4-4|4-4-4-4-4-4-4--|
|2-2-2-2-2-2-2-2|2-2-2-2-2-2-2-2|2-2-2-2-2-2-2-2|2-2-2-2-2-2-2-0|
|---------------|---------------|2--------------|---------------|
|[acoustic 1]                                                   |
|---------------|---------------|---------------|---------------|
|---------------|---------------|---------------|---------------|
|---------------|--------4-4-4-4|4-4-4-4-4-4-4-4|4-4-4-4-4-4-4--|
|--------4-4-4-4|4-4-4-4-4-4-4-4|4-4-4-4-4-4-4-4|4-4-4-4-4-4-4--|
|2-2-2-2-2-2-2-2|2-2-2-2-2-2-2-2|2-2-2-2-2-2-2-2|2-2-2-2-2-2-2-0|
|---------------|---------------|---------------|---------------|
|[acoustic 2]                                                   |
|---------------|---------------|---------------|---------------|
|-----0--0------|--------0------|0---0----------|---------------|
|---4------4----|------4--------|4---4----------|---------------|
|---------------|---------------|---------------|---------------|
|2--------------|---------------|---------------|2-2-2-2-2-2----|
|---------------|---------------|---------------|---------------|

[5:54]
|[electric]                                                     |
|4---2----------|--4---2---5----|4---2----------|--4---2---4----|
|5---3----------|--5---3---5----|5---3----------|--5---3---5----|
|4---2----------|--4---2---6----|4---2----------|--4---2---4----|
|0-0-0-0-0-0-0-0|0-0-0-0-0-0-0-0|0-0-0-0-0-0-0-0|0-0-0-0-0-0-0-0|
|---------------|---------------|---------------|---------------|
|---------------|---------------|---------------|---------------|
|[acoustic 1/2]                                                 |
|4---2----------|--4---2---5----|4---2----------|--4---2---4----|
|5---3----------|--5---3---5----|5---3----------|--5---3---5----|
|4---2----------|--4---2---6----|4---2----------|--4---2---4----|
|0-0-0-0-0-0-0-0|0-0-0-0-0-0-0-0|0-0-0-0-0-0-0-0|0-0-0-0-0-0-0-0|
|---------------|---------------|---------------|---------------|
|---------------|---------------|---------------|---------------|


|[electric]                                                      |
|6---4----------|--6---4---6----|6---6---6---6--|----6-----------|
|7---5----------|--7---5---7----|7---6---7---6--|----7---6-6-6---|
|6---4----------|--6---4---6----|6---7---6---7--|----6---7-7-7---|
|0-0-0-0-0-0-0-0|0-0-0-0-0-0-0-0|0-0-0-0-0-0-0-0|0-0-0-0-0-0-0-0-|
|---------------|-----(0)-------|---------------|----------------|
|---------------|---------------|---------------|----------------|
|[acoustic 1]                                                    |
|6---4----------|--6---4---6----|6-----6-----6..|--6-------------|
|7---5----------|--7---5---7----|7-----6-----7--|--7-----6-6-6---|
|6---4----------|--6---4---6----|6-----7-----6--|--6---7-7-7-7---|
|0-0-0-0-0-0-0-0|0-0-0-0-0-0-0-0|0-0-0-0-0-0-0-0|0-0-0-0-0-0-0-0-|
|---------------|---------------|---------------|----------------|
|---------------|---------------|---------------|----------------|
|[acoustic 2]                                                    |
|6---4----------|--6---4---6----|6-----6-----6--|--6-------------|
|7---5----------|--7-5-5---7----|7-----6-----7--|--7-----6---6---|
|6---4----------|--6-4-4---6----|6-----7-----6--|--6---7-7---7---|
|0-0-0-0-0-0-0-0|0-0-0-0-0-0-0-0|0-0-0-0-0-0-0-0|0-0-0-0-0-0-0-0-|
|---------------|---------------|---------------|----------------|
|---------------|---------------|---------------|----------------|


|[electric]                                                     |
|7-----8-----7--|--5-----8---8--|7---8-----5----|---------------|
|8-----8-----8--|--6-----8---8--|8---8-----6----|---------------|
|7-----7-----7--|--5-----9---9--|7---7-----5----|------5-5-5-5-5|
|0-0-0-0-0-0-0-0|0-0-0-0-0-0-0-0|0-0-0-0-0-0-0-0|0-0-0-0-0-0-0-0|
|---------------|---------------|---------------|---------------|
|---------------|---------------|---------------|---------------|
|[acoustic 1]                                                   |
|7-----8-----7--|--5------------|7-----8-----5--|---------------|
|8-----8-----8--|--6------------|8-----8-----6--|---------------|
|7-----7-----7--|--5------------|7-----9-----5--|------5-5-5-5-5|
|0-0-0-0-0-0-0-0|0-0-0-0-0-0-0-0|0-0-0-0-0-0-0-0|0-0-0-0-0-0-0-0|
|---------------|---------------|---------------|---------------|
|---------------|---------------|---------------|---------------|
|[acoustic 2]                                                   |
|7-----8-----7--|--5------------|7-----8--------|---------------|
|8-----8-----8--|--6------------|8-----8--------|---------------|
|7-----7-----7--|--5------------|7-----9--------|------5-5-5-5-5|
|0-0-0-0-0-0-0-0|0-0-0-0-0-0-0-0|0-0-0-0-0-0-0-0|0-0-0-0-0-0-0-0|
|---------------|---------------|---------------|---------------|
|---------------|---------------|---------------|---------------|


|[electric]                                                       |
|7-----8--------|--77---8----5----|7-----8-----10-|---------------|
|8---x-8--------|--88---8----6----|8---x-8-----10-|----------x/x/x|
|7---x-9--------|--77---9----5----|7---x-9-----11-|---11-11--x/x/x|
|0-0-0-0-0-0-0-0|0-0-0-0-0-0-0-0-0|0-0-0-0-0-0-0-0|0-0-0-0-0-0/0/0|
|---------------|-----------------|---------------|---------------|
|---------------|-----------------|---------------|---------------|
|[acoustic 1]                                                     |
|7-----8--------|---7----8---5----|7-----8-----10-|---------------|
|8-----8--------|---8----8---6----|8---x-8-----10-|---------------|
|7-----9--------|---7----9---5----|7---x-9-----11-|---------------|
|0-0-0-0-0-0-0-0|0-0-0-0-0-0-0-0-0|0-0-0-0-0-0-0-0|0-0-0-0-0-0-0-0|
|---------------|-----------------|---------------|---------------|
|---------------|-----------------|---------------|---------------|
|[acoustic 2]                     [w/ drop tuning]                |
|7-----8-----10-|-----------------|7-----------2--|2/2/2/---------|
|8-----8-----10-|-----------------|8-----------3--|3/3/3/---------|
|7-----9-----11-|-----------------|7-----------2--|2/2/2/---------|
|0-0-0-0-0-0-0-0|0-0-0-0-0-0-0-0-0|0-----------0--|0/0/0/0-0-0-0-0|
|---------------|-----------------|0-----------0--|0/0/0/0--------|
|---------------|-----------------|0-0-0-0-0-0-0-0|0/0/0/0--------|


|[electric]                                                        |
|11-------------|10--------------|---------------|-----------------|
|12-------------|10--------------|--------8-8-8-8|8-8-8-8-8-8-8-8--|
|11----11-11-11-|11-----11----11-|--------9-9-9-9|9-9-9-9-9-9-9-9--|
|0-0-0-0-0-0-0-0|-0-0-0-0-0-0-0-0|0-0-0-0-0-0-0-0|0-0-0-0-0-0-0-0-0|
|---------------|----------------|---------------|-----------------|
|---------------|----------------|---------------|-----------------|
|[acoustic 1]                                                       
|11-------------|10--------------|8--------------|-----------------|
|12-------------|10--------------|8--------------|-----------------|
|11-------------|11--------------|9-------9-9-9-9|9-9-9-9-9-9-9-9-9|
|0-0-0-0-0-0-0-0|-0-0-0-0-0-0-0-0|0-0-0-0-0-0-0-0|0-0-0-0-0-0-0-0-0|
|---------------|----------------|---------------|-----------------|
|---------------|----------------|---------------|-----------------|
|[acoustic 2; w/drop tuning]                                       |
|11-------------|10--------------|8--------------|10------8--------|
|12-------------|10--------------|8--------------|10------8--------|
|11-------------|11--------------|9--------------|11------9--------|
|0--------------|0---------------|0--------------|0-------0--------|
|---------------|----------------|---------------|-----------------|
|-0--0---0---0--|0----0---0---0--|0-0-0-0-0-0-0-0|-----------------|


|[electric]                                                             |
|10--11--10--11--|10--11--10--11--|-----------------|-------------------|
|10--12--10--12--|10--12--10--12--|-----------------|-------------------|
|11--11--11--11--|11--11--11--11--|--------11-11-11-|11-11-11-11-11-----|
|-0-0-0-0-0-0-0-0|-0-0-0-0-0-0-0-0|9-9-9-9-9--9--9-9|9--9--9--9--9--0-0-|
|----------------|----------------|-----------------|-------------------|
|----------------|----------------|-----------------|-------------------|
|[acoustic 1]                                                           |
|----------------|----------------|-----------------|-------------------|
|----------------|----------------|-----------------|-------------------|
|-----------11---|----------------|-----------------|-------------------|
|-0-0-0-0-0-0----|----------------|-----------------|-------------------|
|----------------|----------------|-----------------|-------------------|
|----------------|----------------|-----------------|-------------------|
|[acoustic 2]                                       [end drop tuning*]  |
|----------------|----------------|-----------------|7------------------|
|10--------------|----------------|----------------7|-------------------|
|11--------------|----------------|--------------8--|-------------------|
|-0--------------|----------------|9-9-9-9-9-9-9----|-------------------|
|----------------|----------------|-----------------|-------------------|
|-----0-0-0-0-0-0|-0-0-0-0-0-0-0-0|-----------------|-------------------|
|[bass]                                                                 |
|----------------|----------------|-----------------|-------------------|
|----------------|----------------|-----------------|-------------------|
|-------%--------|-3-3-3-3-3-3-3-3|-----------------|-------------------|
|----------------|----------------|5-5-5-5-5-5-5-5--|5--5--5--5--5--5-5-|

[6:38]
|[electric]                                                       |
|---0----|-------<7>|------<7>---|-------7--|---0---7---|---0-----|
|--0-0---|--0-<7>---|-0-<7>---0--|-0--<7>--0|--0-<7>----|--0-0----|
|-8---8--|-6--------|8-------8--/|6-------6-|/8----8----|-6---6---|
|9-------|7--7-----9|-----------7|----------|9----------|7-------5|
|--------|----------|------------|----------|-----------|---------|
|--------|----------|------------|----------|-----------|---------|
|[acoustic 1]                                                     |
|--0-0-0-|0-0-0-0-0-|0-0-0-0-0-0-|0-0-0-0-0-|0-0-0-0-0-0|-0-0-0-0-|
|---5-5-5|-5-5-5-5-5|-5-5-5-5-5-5|-5-5-5-5-5|-5-5-5-5-5-|5-5-5-5-5|
|--------|----------|------------|----------|-----------|---------|
|--------|----------|------------|----------|-----------|---------|
|--------|----------|------------|----------|-----------|---------|
|--------|----------|------------|----------|-----------|---------|
|[acoustic 2]                                                     |
|--0-0-0-|0-0-0-0-0-|------------|0-0-------|<12>-<12>--|------<12>
|---5-5-5|-5-5-5-5-5|------------|-5-5--0-0-|---<12>-<12>----<12>-|
|--------|----------|-----%------|----------|-----------|<5>------|
|--------|----------|------------|----------|-----------|---------|
|--------|----------|------------|----------|-----------|---------|
|--------|----------|------------|----------|-----------|---------|
|[bass]                                                           |
|--------|----------|------------|----------|-----------|---------|
|--------|----------|------------|----------|-----------|---------|
|--------|----------|------------%----------|-----------%---------|
|55555555|55555555--|------------|----------|-----------|---------|


|[electric]                            |
|--0---0-|-----0---|--0---0---|0---0---|
|-0---0-0|----0-0--|--<5>--0--|-0-0-0--|
|4---3---|4--3---3-|-4--------|-4---3-3|
|---4----|-5/4----4|5----4-4/5|--5--4-4|
|--------|---------|----------|--------|
|--------|---------|----------|--------|
|[acoustic 1]                          |
|--------|---------|----------|--------|
|--------|---------|----------|--------|
|----%---|-----%---|-----%----|---%----|
|--------|---------|----------|--------|
|--------|---------|----------|--------|
|--------|---------|----------|--------|
|[acoustic 2]                          |
|----<7>-|--<5>----|--0-0-0-0-|0-0-0-0-|
|<12>-<7>|<7>-<5>--|---5-5-5-5|-5-5-5-5|
|--------|------<5>|----------|--------|
|--------|---------|----------|--------|
|--------|---------|----------|--------|
|--------|---------|----------|--------|


|[electric]                             |
|--0--0--0|--0--0--0|--0--0--0|--0------|
|---0--0--|0--0--0--|0--0--0--|0--0-----|
|2-2-4-4-2|2-4-4-2-2|7-7-8-8-7|7-8-8-888|
|4-4-6-6-4|4-6-6-4-4|8-8-9-9-8|8-9-9-999|
|---------|---------|---------|---------|
|---------|---------|---------|---------|
|[acoustic 1]                           |
|---------|---------|---------|0-0-0----|
|---------|---------|---------|-5-5-5---|
|----%----|----%----|---------|---------|
|---------|---------|----%----|---------|
|---------|---------|---------|---------|
|---------|---------|---------|---------|
|[acoustic 2]                           |
|---------|---------|---------|---------|
|---------|---------|---------|---------|
|----%----|----%----|444444444|444444444|
|---------|---------|---------|---------|
|---------|---------|---------|---------|
|---------|---------|---------|---------|


                                  Ahhh...
|[electric]                                                        |
|----0-0---------|---------------|----------------|----------------|
|0---0-0---------|----0-0-0---0-0|0---------------|0---------------|
|9-9-9-9-9-9-9-9-|9-9-9-9-9-9-9-9|9-9-9-9-9-9-9-9-|9-9-9-9-9-9-9-9-|
|8-8-8-8-7-7-7-7-|7-7-7-7-7-7-7-7|9-9-9-9-9-9-9-9p|7-7-7-7-7-7-7-7-|
|----------------|---------------|----------------|----------------|
|----------------|---------------|----------------|----------------|
|[palm mute                                                       ]|
|[acoustic 1]                                                      |
|----------------|---------------|----------------|----------------|
|----------------|---------------|----------------|----------------|
|----------------|---------------|x-x-x-x-x-x-x-x-|----------------|
|9999999999999999|999999999999999|9999999999999999|---%-------%----|
|----------------|---------------|----------------|----------------|
|----------------|---------------|----------------|----------------|
|[acoustic 2]                                                      |
|----------------|-----------00--|----------------|----------------|
|--0-0-0---------|-----------00--|xxxxxxxxxxxxxxxx|xxxxxxxxxxxxxxxx|
|44-4-4-444444444|444444444444444|4444444444444444|4444444444444444|
|----------------|---------------|----------------|----------------|
|----------------|---------------|----------------|----------------|
|----------------|---------------|----------------|----------------|

 Ahhh...
|[electric]                                                     |
|------------------|---------------|----------------|-----------|
|(0)---------------|0-----0--0--0--|(0)---0---0--0--|-0--0---0-0|
|----x-x-x---------|0--------------|----------------|-----------|
|9-9-9-9-9-9-9-9/11|11-11-11-11-11-|------12-/14-12-|-11-9------|
|7-7-7-7-7-7-7-7/-9|9--9--9--9--9--|10-10-10-/12-10-|-9--7--\5-5|
|------------------|---------------|----------------|-----------|
|[acoustic 1]                                                   |
|------------------|---------------|----------------|-----------|
|------------------|---------------|----------------|-----------|
|------------------|---------------|----------------|-----------|
|--------%---------|-------%-------|--------%-------|-----%-----|
|------------------|---------------|----------------|-----------|
|------------------|---------------|----------------|-----------|
|[acoustic 2]                                                   |
|------------------|--------0------|---------0------|---0-0-0-0-|
|x-x-x-x-x---------|----0-------0--|-----0--------0-|-----------|
|4-4-4-4-4---------|4-------------x|4---------------|-----------|
|------------------|---------------|----------------|-----------|
|------------------|---------------|----------------|-----------|
|------------------|---------------|----------------|-----------|


|[electric]                                                    |
|---------------|---------------|---------------|--------------|
|0--------------|---------------|---------------|--------------|
|------4-4-4----|----4-4-4-4----|---------------|44-4-4-4-4-4-4|
|4-4-4-4-4-4-4-4|4-4-4-4-4-4-4-0|4-4-4-4-4-4-4-4|44-4-4-4-4-4-4|
|2-2-2-2-2-2-2-2|2-2-2-2-2-2-2--|2-2-2-2-2-2-2-2|22-2-2-2-2-2-2|
|---------------|---------------|---------------|--------------|
|[acoustic 1]                                                  |
|7-----------7-7|------7-7-7-7-7|7-7-7-7-7-7-7-7|--------------|
|0-0-0-0-0-0-0-0|0-0-0-0-0-0-0-0|0-0-0-0-0-0-0-0|--------------|
|---------------|---------------|---------------|--------------|
|---------------|---------------|---------------|-------%------|
|---------------|---------------|---------------|--------------|
|---------------|---------------|---------------|--------------|
|[acoustic 2]                                                  |
|0-0---0--------|---------------|---------------|--------------|
|---------------|---------------|---------------|--------------|
|---------------|---------------|---------------|-------%------|
|---------------|----9-9-9-9----|9-9-9-9-9-9-9-9|--------------|
|---------------|---------------|9-9-9-9-9-9-9-9|--------------|
|---------------|---------------|---------------|--------------|


|[electric]                                                     |
|---------------|---------------|---------------|---------------|
|---------------|---------------|---------------|---------------|
|4-4-4-4-4-4-4-4|4---4---4---4--|4-4-4-4-4-4-4-4|4-4-4-4-4-4----|
|4-4-4-4-4-4-4-4|4-4-4-4-4-4-4-4|4-4-4-4-4-4-4-4|4-4-4-4-4-4----|
|2-2-2-2-2-2-2-2|2-2-2-2-2-2-2-2|2-2-2-2-2-2-2-2|2-2-2-2-2-2----|
|---------------|---------------|---------------|------------0-0|
|[acoustic 1]                                                   |
|---------------|---------------|---------------|---------------|
|---------------|---------------|---------------|---------------|
|------%--------|------%--------|------%--------|------%--------|
|---------------|---------------|---------------|---------------|
|---------------|---------------|---------------|---------------|
|---------------|---------------|---------------|---------------|
|[acoustic 2]                                                   |
|---------------|---------------|---------------|---------------|
|---------------|---------------|---------------|---------------|
|------%--------|------%--------|------%--------|------%--------|
|---------------|---------------|---------------|---------------|
|---------------|---------------|---------------|---------------|
|---------------|---------------|---------------|---------------|

[7:32]
|[electric]                                                     |
|4----|5---0---|4-~~-|5---0---|4-----|5---0---|4-------|0---5---|
|5----|5---5---|5-~~-|5---5---|5-----|5---5---|5-------|5---5---|
|4----|4---4---|4-~~-|4---4---|4-----|4---4---|4-------|4---4---|
|0----|0---0---|0-~~-|0---0---|0-----|0---0---|0-------|0-------|
|0----|----0---|0-~~-|----0---|0-----|0---0---|0-------|0------0|
|0----|----0---|0-~~-|----0---|0-----|0---0---|0-------|0------0|
|[acoustic 1]                                                   |
|4----|5---0---|4----|5---0---|4-----|5---0---|4-------|0---5---|
|5----|5---5---|5----|5---5---|5-----|5---5---|5-------|5---5---|
|4----|4---4---|4----|4-------|4-----|4---4---|4-------|4---4---|
|0----|0---0---|0----|0-------|0-----|0---0---|0-------|0-------|
|0----|0---0---|0----|0-------|0-----|0-------|0-------|0-------|
|0----|0---0---|0----|0-------|0-----|0-------|0-------|0-------|
|[acoustic 2]                                                   |
|4----|5---0---|4----|5---0---|4-----|5---0---|4-------|0---0---|
|5----|5-------|5----|5-------|5-----|5-------|5-------|5-------|
|4----|4-------|4----|4-------|4-----|4-------|4-------|4-------|
|0----|0-------|0----|0-------|0-----|0-------|0-------|0-------|
|0----|0-------|0----|--------|0-----|--------|--------|0-------|
|0----|0-------|0----|--------|0-----|--------|--------|0-------|


|[electric]                                                                  |
|2----|5---0---|4----|5-----0-----|4-------|5---0---|--------|---------------|
|3----|3---3---|5----|5-----5-----|5-------|5---5---|--------|5---5----------|
|2----|2---2---|4----|4-----4-----|4-------|4---4---|4---4-4-|4---4---4------|
|0----|0---0---|0----|0-----0-----|0-------|0-------|00000000|0-0-0-0-0-0-0--|
|-----|--------|0----|0-----0-----|0-------|--------|--------|---------------|
|-----|--------|0----|0-----0-----|0-------|----0--0|--------|---------------|
|[acoustic 1]                                                                |
|2----|5---0---|4----|5-----0-----|4-------|5---0---|4-------|---------------|
|3----|3---3---|5----|5-----5-----|5-------|5---5---|5-------|---------------|
|2----|2---2---|4----|4-----4-----|4-------|4---4---|4-------|---------------|
|0----|0---0---|0----|0-----0-----|0-------|0-------|0-------|---------------|
|0----|--------|0----|------------|--------|--------|--------|---------------|
|0----|--------|0----|------------|--------|--------|--------|---------------|
|[acoustic 2]                                                                |
|2----|5---5---|4----|7---5-7--5-5|4-------|--------|--------|---------------|
|3----|3---3---|5----|------------|-------5|5-5-----|--------|---------------|
|2----|2---2---|4----|------------|--------|--------|--------|---------------|
|0----|0---0--0|-----|------------|--------|--------|--------|---------------|
|-----|-------0|-----|------------|--------|--------|--------|---------------|
|-----|-------0|-----|------------|--------|--------|--------|---------------|
|[bass]
|-----|--------|-----|------------|--------|--------|--------|---------------|
|-----|--------|-----|------------|--------|--------|--------|---------------|
|-----|--------|-----|------------|--------|--------|55355355|3-5-5-3-5-5-3-5|
|-----|--------|-----|------------|--------|--------|--------|---------------|

[8:01; break]
|[electric]                                                              |
|-------|------------|-----------|--------------|---------|--------------|
|-------|------------|-----------|--------------|---------|--------------|
|-------|------------|-----------|--------------|---------|--------------|
|2--2-2-|------------|-----------|--------------|---------|--------------|
|-------|5--5-5\4----|7----7-7---|5----5-5\4---/|7----7-7~|5----5-5\4----|
|-------|---------7-0|--x------x-|--x--------7-0|--x------|--x--------7-0|
|[acoustic 1]                                                            |
|-------|------------|-----------|--------------|---------|--------------|
|-------|------------|-----------|--------------|---------|--------------|
|-------|------------|-----------|--------------|---------|--------------|
|2--2-2-|0--0-0------|2----2-2---|0----0-0------|2----2-2-|0---0--0------|
|-------|-------4-2--|-----------|---------4-2--|---------|---------4-2--|
|-------|------------|-----------|--------------|---------|--------------|
|[acoustic 2]                                                            |
|-------|------------|-----------|--------------|--0---0-0|5----7-----5--|
|-------|------------|-----------|--------------|-5-----5-|-5----5-----5-|
|-------|------------|-----------|--------------|4----4---|---4---4------|
|2--2-2-|0--0-0------|2----2-2---|0----0-0----0-|---------|--------------|
|-------|-------4-2--|-----------|---------4-2--|---------|--------------|
|-------|------------|-----------|--------------|---------|--------------|
|[bass]                                                                  |
|-------|------------|-----------|--------------|---------|--------------|
|-------|------------|-----------|--------------|---------|--------------|
|7--7-7-|-5-5---5-5--|7----7-7--7|5----5-5-4--5-|---------%--------------|
|-x----x|x---------x-|--x------x-|-----------7--|---------|--------------|
|[bass]                                                                  |
|-------|------------|-----------|--------------|---------|--------------|
|-------|------------|-----------|--------------|---------|--------------|
|5--5-5-|-3-3---3-3--|5----5-5--3|3----3-3-2--3-|---------%--------------|
|-x----x|x---------x-|--x------x-|-----------5--|---------|--------------|


|[electric]                                                                    |
|---------|---------------|------------|---------------|----------|------------|
|---------|---------------|------------|---------------|----------|------------|
|---------|---------------|------------|---------------|----------|------------|
|---------|---------------|------------|---------------|----------|------------|
|7---7-7--|-5--5-5\4------|7----7-7----|5--5-5\4-------|7----7-7--|5--5-5\4----|
|--x-----x|---x------7-0--|---x------x-|--x------7-0---|--x-------|--x------7-0|
|[acoustic 1]                                                                  |
|---------|---------------|------------|---------------|----------|------------|
|---------|---------------|------------|---------------|----------|------------|
|---------|---------------|------------|---------------|----------|------------|
|2---2-2--|-0--0-0--------|2----2-2----|0--0-0---------|2----2-2--|0--0-0------|
|---------|--------4-2----|0-----------|-------4-2-----|----------|-------4-2--|
|---------|------------0--|------------|-----------0---|----------|------------|
|[acoustic 2]                                                                  |
|-5----0--|---------------|------------|---------------|----------|------------|
|---5-----|---------------|------------|---------------|----------|------------|
|5----4---|------0--------|-----0-2-2--|0--------------|-------2-2|------------|
|---------|0-2-4---4-2---0|2-2h4------4|--4-2-0----2-0-|2-2-2h4-4-|4-----0-----|
|---------|-----------2h4-|------------|--------2h4---4|----------|------------|
|---------|---------------|------------|---------------|----------|------------|


|[electric]                                                  |
|---------|-----------|-------|------------|-------|2--------|
|---------|-----------|-------|------------|5------|3--------|
|---------|-----------|-------|------------|4------|2--------|
|---------|-----------|-------|------------|-------|0--------|
|7---7-7--|5--5-5\4---|7--7-7-|5--5-5\4----|-------|---------|
|--x----x-|-x------7-0|--x---x|-x-------7-0|--00000|0-000000-|
|[acoustic 1]                                                |
|4--------|0----5-----|4------|0-----5-----|4------|-----5---|
|5--------|5----5-----|5------|5-----5-----|5------|5----5---|
|4--------|4----4-----|4------|4-----4-----|4------|4----4---|
|0--------|0----0-----|0------|0-----0-----|0------|0----0---|
|---------|-----------|-------|------------|-------|---------|
|---------|-----------|-------|------------|-------|---------|
|[acoustic 2]                                                |
|0--------|--12.......|12-12--|12-10---9---|7--7-7-|5---4-2p0|
|5--------|-----------|------0|--0----0--0-|--0-0-0|---0---0-|
|4--------|-----------|-------|------------|-------|---------|
|0--------|-----------|-------|------------|-------|---------|
|---------|-----------|-------|------------|-------|---------|
|---------|-----------|-------|------------|-------|---------|


|[electric]                                         |
|4-------|2-------|4-------2-------|4-------2-------|
|5-------|3-------|5-------3-------|5-------3-------|
|4-------|2-------|4-------2-------|4-------2-------|
|0-------|0-------|0-0-0-0-0-0-0-0-|0-0-0-0-0-0-0-0-|
|0-------|0-------|0---------------|----------------|
|0-000000|0--00000|0---------------|----------------|
|[acoustic 1]                                       |
|4-------|0-------|----------------|----------------|
|5-------|5-------|----------------|----------------|
|4-------|4-------|----------------|----------------|
|0-------|0-------|----------------|----------------|
|--------|--------|----------------|----------------|
|--------|--------|----------------|----------------|
|[acoustic 2]                                       |
|2/4-4---|--------|----------------|----------------|
|---0----|--------|----------------|----------------|
|--------|--------|----------------|----------------|
|--------|--------|----------------|----------------|
|--------|--------|----------------|----------------|
|--------|--------|----------------|----------------|


|[electric]                                                        |
|5---4---2---4---|5---4---2---4---|5---4---2---4---|---------------|
|5---5---3---5---|5---5---3---5---|5---5---3---5---|3--------------|
|6---4---2---4---|6---4---2---4---|6---4---2---4---|2-2-2-2-2-2----|
|0-0-0-0-0-0-0-0-|0-0-0-0-0-0-0-0-|0-0-0-0-0-0-0-0-|0-0-0-0-0-0-0--|
|----------------|----------------|----------------|--------------0|
|----------------|----------------|----------------|---------------|
|[acoustic 1]                                                      |
|5---4---2---4---|5---4---2---4---|5---4---2---4---|5---4---2------|
|5---5---3---5---|5---5---3---5---|5---5---3---5---|5---5---3------|
|6---4---2---4---|6---4---2---4---|6---4---2---4---|6---4---2------|
|0---0---0---0---|0---0---0---0---|0---0---0---0---|0---0---0-0-0-0|
|----------------|----------------|----------------|---------------|
|----------------|----------------|----------------|---------------|
|[acoustic 2]                                                      |
|----------------|----------------|----4---2---4---|5---4----------|
|----------------|----------------|----5---3---5---|5---5----------|
|----------------|----------------|----4---2---4---|6---4----------|
|----------------|0---0---0---0---|0---0---0---0---|0-0-0-0-0-0----|
|----------------|----------------|----------------|---------------|
|----------------|----------------|----------------|---------------|

[8:50]
[electric/acoustic 1/2]                                             |
|------|--------------|-------|-------------|-------|---------------|
|------|--------------|-------|-------------|-------|---------------|
|------|--------------|-------|-------------|-------|---------------|
|2-0---|--2-0---------|2-0----|--2-0--------|0------|--0------------|
|------|------3-2-0---|-------|------3-2-0--|--3----|-----3-2-0---0-|
|------|------------3-|-------|------------3|-------|-----------3---|


|[electric]                                                     |
|---------------|---------------|---------------|---------------|
|---------------|---------------|---------------|---------------|
|---------------|---------------|---------------|---------------|
|---------------|4-4-4-4-4-4-4-4|4-4-4-4-4-4-4-4|4-4-4-4-4-4-4-4|
|2-2-2-2-2-2-2-2|2-2-2-2-2-2-2-2|2-2-2-2-2-2-2-2|2-2-2-2-2-2-2-2|
|---------------|---------------|---------------|---------------|
|[acoustic 1]                                                   |
|---------------|---------------|---------------|---------------|
|---------------|---------------|---------------|---------------|
|---------------|---------------|---------------|---------------|
|---------------|4-4-4-4-4-4-4-4|4-4-4-4-4-4-4-4|4-4-4-4-4-4-4-4|
|2-2-2-2-2-2-2-2|2-2-2-2-2-2-2-2|2-2-2-2-2-2-2-2|2-2-2-2-2-2-2-2|
|---------------|---------------|---------------|---------------|
|[acoustic 2]                                                   |
|--------------7|7------7---7---|--7...--7....--|7-----7---7----|
|------0-0-0-0-0|0------0-0-0---|0-0...--0....--|0-----0---0----|
|---------------|---------------|---------------|---------------|
|---------------|---------------|---------------|---------------|
|2--------------|---------------|---------------|---------------|
|---------------|---------------|---------------|---------------|


|[electric]                                                     |
|---------------|---------------|---------------|---------------|
|---------------|---------------|---------------|---------------|
|4-4-4-4-4-4-4-4|4-4-4-4-4-4-4-4|4-4-4-4-4-4-4-4|4-4-4-4-4-4-4-4|
|4-4-4-4-4-4-4-4|4-4-4-4-4-4-4-4|4-4-4-4-4-4-4-4|4-4-4-4-4-4-4-4|
|2-2-2-2-2-2-2-2|2-2-2-2-2-2-2-2|2-2-2-2-2-2-2-2|2-2-2-2-2-2-2-2|
|---------------|---------------|---------------|---------------|
|[acoustic 1]                                                   |
|---------------|---------------|---------------|---------------|
|---------------|---------------|---------------|---------------|
|4-4-4-4-4-4-4-4|4-4-4-4-4-4-4-4|4-4-4-4-4-4/4/4|4-4-4-4-4-4-4-4|
|4-4-4-4-4-4-4-4|4-4-4-4-4-4-4-4|4-4-4-4-4-4/4/4|4-4-4-4-4-4-4-4|
|2-2-2-2-2-2-2-2|2-2-2-2-2-2-2-2|2-2-2-2-2-2/2/2|2-2-2-2-2-2-2-2|
|---------------|---------------|---------------|---------------|
|[acoustic 2]                                                   |
|----7-7-7-7-7-7|7-7-7----------|7---7-7-7-7-7-7|7-7-7-7-7-7-7-7|
|----7-7-7-7-7-7|7-7-7-------7--|7---7-7-7-7-7-7|7-7-7-7-7-7-7-7|
|----8-8-8-8-8-8|8-9-8-------8--|8---8-8-8-8-8-8|8-8-8-8-8-8-8-8|
|----9-9-9-9-9-9|9-9-9---9-9-9--|9---9-9-9-9-9-9|9-9-9-9-9-9-9-9|
|---------------|---------------|---------------|---------------|
|7T-------------|---------------|7T--7-7-7-7-7-7|7-7-7-7-7-7-7-7|


|[electric; acoustic 1]                     |
|---|---|---|---|---|---|---|---------------|
|---|---|---|---|---|---|---|---------------|
|-%-|-%-|-%-|-%-|-%-|-%-|-%-|4-4-4-4-4-4-x--|
|---|---|---|---|---|---|---|4-4-4-4-4-4-x--|
|---|---|---|---|---|---|---|2-2-2-2-2-2-x--|
|---|---|---|---|---|---|---|---------------|
|[acoustic 2]                               |
|---|---|---|---|---|---|---|7-7-7-7-7-7----|
|---|---|---|---|---|---|---|7-7-7-7-7-7----|
|-%-|-%-|-%-|-%-|-%-|-%-|-%-|8-8-8-8-8-8----|
|---|---|---|---|---|---|---|9-9-9-9-9-9-9--|
|---|---|---|---|---|---|---|------------0-0|
|---|---|---|---|---|---|---|---------------|

[9:28]
 Ahhh...
|[electric]                                                        |
|4-------|5---0---|4----|5---0---|4-----|5---0---|4-------|5---0---|
|5-------|5---5---|5----|5---5---|5-----|5---5---|5-------|5---5---|
|4-------|4---4---|4----|4---4---|4-----|4---4---|4-------|4---4---|
|0-------|0---0---|0----|0---0---|0-----|0---0---|0-------|0---5---|
|0-------|0---0---|0----|0---0---|0-----|0---0---|0-------|0---0---|
|0-------|0---0---|0----|0---0---|0-----|0---0---|0-------|0---0---|
|[acoustic 1]                                                      |
|4-------|0---5---|4----|0---5---|4-----|0---5---|4-------|0---5---|
|5-------|5---5---|5----|5-------|5-----|5---5---|5-------|5---5---|
|4-------|4---4---|4----|4-------|4-----|4---4---|4-------|4---4---|
|0-------|0---0---|0----|0-------|0-----|0---0---|0-------|0---5---|
|0-------|0---0---|0----|0-------|0-----|0---0---|0-------|0---0---|
|0-------|0---0---|0----|0-------|0-----|0---0---|0-------|0---0---|
|[acoustic 2]                                                      |
|4-------|0---0---|4----|0---0---|4-----|0---0---|4-------|0---0---|
|5-------|5---5---|5----|5-------|5-----|5-------|5-------|5-------|
|4-------|4---4---|4----|4-------|4-----|4-------|4-------|4-------|
|0-------|0---0---|0----|0-------|0-----|0-------|0-------|0-------|
|0-------|0-------|0----|--------|------|--------|--------|--------|
|0-------|0-------|0----|--------|------|--------|--------|--------|
|[bass]                                                            |
|--------|--------|-----|--------|------|--------|--------|--------|
|--------|5-------|-----|5-------|------|5-------|--------|3-------|
|5-------|----3---|5----|----3---|5-----|----3---|5-------|----5---|
|--------|--------|-----|--------|------|--------|--------|--------|


|[electric]                                                     |
|4---2----------|--4---2---5----|4---2----------|--4---2---5----|
|5---3----------|--5---3---5----|5---3----------|--5---3---5----|
|4---2----------|--4---2---6----|4---2----------|--4---2---6----|
|0---0-0-0-0-0-0|0-0-0-0-0-0-0-0|0-0-0-0-0-0-0-0|0-0-0-0-0-0-0-0|
|---------------|---(0)---------|---------------|---------------|
|---------------|---------------|---------------|---------------|
|[acoustic 1/2]                                                 |
|4---2----------|--4---2---5----|4---2----------|--4---2---5----|
|5---3----------|--5---3---5----|5---3----------|--5---3---5----|
|4---2----------|--4---2---6----|4---2----------|--4---2---6----|
|0-0-0-0-0-0-0-0|0-0-0-0-0-0-0-0|0-0-0-0-0-0-0-0|0-0-0-0-0-0-0-0|
|---------------|---------------|---------------|---------------|
|---------------|---------------|---------------|---------------|
|[bass]                                                         |
|---------------|---------------|---------------|---------------|
|---------------|---------------|---------------|---------------|
|3-3-3-3-3-3-3-3|--------%------|-------%-------|-------%-------|
|---------------|---------------|---------------|---------------|


|[electric]                                                    |
|4---2----------|--4---2---5----|4---2----------|--4---2---4---|
|5---3----------|--5---3---5----|5---3----------|--5---3---5-x-|
|4---2----------|--4---2---6----|4---2----------|--4---2---4-x-|
|0-0-0-0-0-0-0-0|0-0-0-0-0-0-0-0|0-0-0-0-0-0-0-0|0-0-0-0-0-0-x-|
|---------------|---------------|---------------|--------------|
|---------------|---------------|---------------|--------------|
|[acoustic 1/2]                                                |
|4---2----------|--4---2---5----|4---2----------|--4---2---4---|
|5---3----------|--5---3---5----|5---3----------|--5---3---5-x-|
|4---2----------|--4---2---6----|4---2----------|--4---2---4-x-|
|0-0-0-0-0-0-0-0|0-0-0-0-0-0-0-0|0-0-0-0-0-0-0-0|0-0-0-0-0-0-x-|
|---------------|---------------|---------------|--------------|
|---------------|---------------|---------------|--------------|


|[electric]             |
|-----------|14\--------|
|11---11----|11\--------|
|11---11----|11\--------|
|11---11----|11\--------|
|-----------|-----------|
|10---10----|10\--------|
|[acoustic 1/2]         |
|6----6-----|6----------|
|7----7-----|7----------|
|6----6-----|6----------|
|0----0-----|0----------|
|-----------|-----------|
|-----------|-----------|
|[bass]                 |
|-----------|-----------|
|-----------|-----------|
|3----3-----|3----------|
|-----------|-----------|


=============
litgo@aol.com

#----------------------------------PLEASE NOTE---------------------------------#
#This file is the author's own work and represents their interpretation of the #
#song. You may only use this file for private study, scholarship, or research. #
#------------------------------------------------------------------------------#

Disclaimer

A note on the content here:

The files archived on this site are the respective transcriber’s own work and represent their interpretations of the songs. You may only use these files for private study, scholarship or research. more on use of files >>

Section navigation

Tablature Section

Site info Navigation

Whotabs is not affiliated with The Who, its record company or management.