Whotabs – The Definitive Online Tablature and Gear Resource for The Who since 1997

Return to Whotabs

Won’t Get Fooled Again (Live) – bass tab

Won't Get Fooled Again (Live) | bass tab
By The Who
Performed live at Shepperton Studios  May 25, 1978
>From The Kids Are Alright soundtrack, 1978
Written by Pete Townshend (c)1971 Fabulous Music LTD
Arranged by John Entwistle (bass)


#----------------------------------PLEASE NOTE---------------------------------#
#This file is the author's own work and represents their interpretation of the #
#song. You may only use this file for private study, scholarship, or research. #
#------------------------------------------------------------------------------#


Transcribed by Sameer Barua (sameer@fattyandfriends.com)
2003-02-11                    Whotabs                 www.thewho.net/whotabs/

Correction by John C                                      Whotabs
jc1033@gmail.com                 rev1 2007-07-22          www.thewho.net/whotabs
(last 11 bars)


  Q=132
 4/4
  Gtr I
  E   W          +H..         E      +H..        E     +W
|---|----------|-----------------|------------------|----------|
|---|----------|-----------------|--------------<7>-|-(<7>)----|
|-5-|-0--------|-(0)--------<12>-|-(<12>)-----------|----------|
|---|----------|-----------------|------------------|----------|


   +W             +W             +W             +W
|--------------|--------------|--------------|----------|
|-(<7>)--------|-(<7>)--------|-(<7>)--------|-(<7>)----|
|--------------|--------------|--------------|----------|
|--------------|--------------|--------------|----------|


  Wx4
|--------|
|--------|
|--------|
|--------|


  Wx4          H..       E
|------------|-------------|
|------------|-------------|
|------------|-----------5-|
|------------|-------------|


  W          E E E E Q.   E   W          E E E E Q.   E
|----------|----------------|----------|------------------|
|----------|---5------------|----------|---5--------------|
|----------|-------5-5------|----------|-------5-5--------|
|-5--------|--------------3h|=5--------|--------------3h==|


 4/4
  Q  E E Q  E E   q  H.        W          H.       Q
|---------------|------------|----------|---------14\--|
|---------------|------------|----------|--------------|
|---------------|------------|----------|--------------|
|-5----5-5----5-|-5----------|----------|--------------|


 4/4
  Q  E E Q  E E   E E E E E E Q    Q  E E Q  E E   E E E E E E Q   a
|--------2------|----------------|--------2------|-------0-----0s=12--|
|---------------|-0-1-2-0--------|---------------|-0-1-2-----0--------|
|-0----0------0-|---------3-0----|-0----0------0-|--------------------|
|---------------|-------------3--|---------------|--------------------|


  Q  E E Q  E E   E E E E E E Q    Q  E E E E E E    e  E E E  H    a
|--------2------|-------0--------|--------------0s|=12--------24s===0-|
|---------------|-0-1-2-----0-1--|-2--------2-0---|---------0---------|
|-0----0------0-|----------------|----0-2---------|-------------------|
|---------------|----------------|--------0-------|----15-------------|


  Q  E E Q  E E   E E E E E E E E   Q  E E Q  E E   E E E E E E Q  a
|--------2------|-----------------|--------2------|-------0-----0s12--|
|---------------|-0-1-2-0---------|---------------|-0-1-2-----0-------|
|-0----0------0-|---------3-0-----|-0----0------0-|-------------------|
|---------------|-------------3-4-|---------------|-------------------|


  Q  E E Q  E E   E E E E E E Q    Q  E E E E E E    e  E E  E  Q   Q
|--------2------|-------0--------|--------------0s|=12------------------|
|---------------|-0-1-2-----0-1--|-2--------2-0---|---------------------|
|-0----0------0-|----------------|----0-2---------|----10---------------|
|---------------|----------------|--------0-------|---------10-10--10---|


   E E  E E  Q.   E    E E E  E E E  E E
|-11-9--------------|-11-9---------------|
|------11-9-------0-|--------11---9----0-|
|-----------12------|---------------12---|
|-------------------|--------------------|


  a  E E  E E  Q.   E    E E E  E S E.  E.  S
|-9h11-9--------------|-11-9------------------|
|--------11-9-------0-|--------11---9---------|
|-------------12------|----------------12--12-|
|---------------------|-----------------------|


  a  E E  E E  Q.   E    S  E S +E   E  +S  E.  E S S
|-9h11-9--------------|-11-11-9-(9)-------------------|
|--------11-9-------0-|-------------11-(11)-9-----0-2-|
|-------------12------|------------------------12-----|
|---------------------|-------------------------------|


  Q.   E E E E E   E E E E E E E E
|-0------0---0---|-----------------|
|------0---0---0-|-2-0-----2-0---0-|
|----------------|-----2-------2---|
|----------------|-------0---------|


  Q.   E E E E E   E E E E E E Q    Q.   S S Q  a  Q     H..        S  S
|-0------0---0-2-|----------------|-0--------0--0s17\--|-----------------|
|------0---0-----|-2-0-------2-0--|------0-0-----------|-0---------12-12-|
|----------------|-----2----------|--------------------|-----------------|
|----------------|-------0--------|--------------------|-----------------|


   E S S E S S E S S S S S S   W          a  Q   H    E E
|-11-9-7-9-7-9-7-------------|----------|------------------|
|----------------9-7-9-7-----|-0--------|-0s16\------------|
|------------------------9-7-|----------|------------------|
|----------------------------|----------|---------------3h=|


  W          E E E E E +E   a E E   W          E E E E E E Q    a
|----------|----------------------|----------|--------------------|
|----------|---5------------------|----------|---5----------------|
|----------|-------5-5-(5)s15-----|----------|-------5-5-3-3s==15-|
|-5--------|--------------------3h|=5--------|--------------------|


  Q  E E E E E E   E E E E E E E E
|----------------|-----------------|
|----------------|-----5-7-5-------|
|------------3-5-|-6-7-------7-6-5-|
|-5----0-3-5-----|-----------------|


  E S S E S S S S E Q    +E  S S E E E E E E
|----------------------|-------------5--------|
|----------------------|-----5-7-5-----7-5----|
|-3-----3-----3---3----|-----------7-------7--|
|---5-5---5-5---5---5--|-(5)------------------|


  Q  E E Q  E E   E E E E E E Q    Q  E E Q  E E   E E E E E E Q   a
|--------2------|----------------|--------2------|-------0-----0s=12-|
|---------------|-0-1-2-0--------|---------------|-0-1-2-----0-------|
|-0----0------0-|---------3-0----|-0----0------0-|-------------------|
|---------------|-------------3--|---------------|-------------------|


  Q  E E Q  E E   E E E E E E Q    Q  E E E E E E    e  E E E  H    a
|--------2------|-------0--------|--------------0s|=12--------24s===0-|
|---------------|-0-1-2-----0-1--|-2--------2-0---|---------0---------|
|-0----0------0-|----------------|----0-2---------|-------------------|
|---------------|----------------|--------0-------|----15-------------|


  Q  E E Q  E E   E E E E E E E E   Q  E E Q  E E   E E E E E E Q   a
|--------2------|-----------------|--------2------|-------0-----0s=12-|
|---------------|-0-1-2-0---------|---------------|-0-1-2-----0-------|
|-0----0------0-|---------3-0-----|-0----0------0-|-------------------|
|---------------|-------------3-4-|---------------|-------------------|


  Q  E E Q  E E   E E E E E E Q    Q  E E E E E E    e  E E  E  Q   Q
|--------2------|-------0--------|--------------0s|=12------------------|
|---------------|-0-1-2-----0-1--|-2--------2-0---|---------------------|
|-0----0------0-|----------------|----0-2---------|----10---------------|
|---------------|----------------|--------0-------|---------10-10--10---|


   E E  E E  Q.   E    E E E  E E E  E E
|-11-9--------------|-11-9---------------|
|------11-9-------0-|--------11---9----0-|
|-----------12------|---------------12---|
|-------------------|--------------------|


  a  E E  E E  Q.   E    E E E  E S E.  E.  S
|-9h11-9--------------|-11-9------------------|
|--------11-9-------0-|--------11---9---------|
|-------------12------|----------------12--12-|
|---------------------|-----------------------|


  a  E E  E E  Q.   E    S  E S +E   E  +S  E.  E S S
|-9h11-9--------------|-11-11-9-(9)-------------------|
|--------11-9-------0-|-------------11-(11)-9-----0-2-|
|-------------12------|------------------------12-----|
|---------------------|-------------------------------|


  Q.   E E E E E   E E E E E E E E
|-0------0---0---|-----------------|
|------0---0---0-|-2-0-----2-0---0-|
|----------------|-----2-------2---|
|----------------|-------0---------|


  Q.   E E E E E   E E E E E E Q    Q.   S S Q  a  Q     H..        S  S
|-0------0---0-2-|----------------|-0--------0--0s17\--|-----------------|
|------0---0-----|-2-0-------2-0--|------0-0-----------|-0---------12-12-|
|----------------|-----2----------|--------------------|-----------------|
|----------------|-------0--------|--------------------|-----------------|


   E S S E S S E S S S S S S   W          a  Q   H    E E
|-11-9-7-9-7-9-7-------------|----------|-------------------|
|----------------9-7-9-7-----|-0--------|-0s16\-------------|
|------------------------9-7-|----------|-------------------|
|----------------------------|----------|---------------3---|


  W          E E E E E +E   a E E   W          E E E E E E Q   a
|----------|----------------------|----------|--------------------|
|----------|---5------------------|----------|---5----------------|
|----------|-------5-5-(5)s15-----|----------|-------5-5-3-3s=15--|
|-5--------|--------------------3h|=5--------|--------------------|


  Q  E E E E E E   E E E E q  Q   a
|----------------|------------2s=21-|
|----------------|---------5--------|
|----------------|-3-5-6-7----------|
|-5----0-3-5---5-|------------------|


  Q  E E E E E E   E S S E   S S S S E E S S
|----------------|-5-7-7-7b9-7-5-7-5---5-----|
|--------7---5-7-|-------------------7---7-5-|
|----------------|---------------------------|
|-5----5---5-----|---------------------------|


  E S S E S S E S S E S S   E E +E  a E +E  E E E
|-------------------------|-----------------5-----|
|-7-5-7-5-----------------|---------5h7-(7)-----5-|
|---------7-5-7-5-7-5-3-5-|-3---------------------|
|-------------------------|---5-(5)---------------|


  E E E E a E E E E   E E E E E E a  Q
|---7-5---7h9-7-5---|-------------0s12\---|
|-7-----7---------7-|-5-------------------|
|-------------------|---7-6-5-------------|
|-------------------|---------5-7---------|


  Q  a E E E E E E   E E S E. E. S +E  S S   Q  E E E E E E   E E E E E E E E
|------------------|---5-------------------|----------------|---5-7------------|
|----5h7-----7-----|-7-----4--6--7-(7)-----|----7-----7---5-|-7-------5-7------|
|------------------|-------------------5-7-|----------------|-------5-----5-7--|
|-5------5-5---5-5-|-----------------------|-5----5-5---5---|------------------|


     ~
  Q  Q  E E E E   E E E E E E E E
|---------------|-------------5-7-|
|----7--------5-|---------5-7-----|
|---------5-7---|---5-6-7---------|
|-5-----5-------|-5---------------|


  S S S S E S S E S S E S S   E S S E E E E E E
|-7h9-x-5-7-5-7-5-----------|---------------------||
|-----------------7-5-7-5-7-|-5-------5-----------||
|---------------------------|---7-5-7---5-3-0-0---||
|---------------------------|---------------------||


  Q  E E E E E E   Q  E E S S E E E   Q  E E E E E E   E E E E E E Q   a
|--------4-4-2---|--------4-4-4-----|----------------|-------------0s=12-|
|------4-------4-|------4-------1-4-|-2--------2-0---|-2-0-----2-0-------|
|-2--------------|-2----------------|----0-2-------2-|-----2-------------|
|----------------|------------------|--------0-------|-------0-----------|


  Q  E E E E E E   E E E E E E E E   Q  E q  Q  E   a E E E E E E Q
|----------------|---------------2-|------4--2----|-4s8-4-2-----------|
|--------2---4---|-5---4---2-0-4---|------------4-|---------4-3-2-0---|
|-0--4-0---0---0-|---0---0---------|-2------------|-------------------|
|----------------|-----------------|--------------|-------------------|


  H    Q   E E   Q  E q  Q  E   H    Q   E E   Q  E q  q  E
|--------------|------4--2----|--------------|------4--2----|
|------4\------|------------4-|------4\------|------------4-|
|-2----------0h|=2------------|-2----------0h|=2------------|
|--------------|--------------|--------------|--------------|


  H    Q   E E   Q  E q  Q  E   H    Q   E E   Q  E q  Q  E
|--------------|------4--2----|--------------|------4--2----|
|------4\------|------------4-|------4\------|------------4-|
|-2----------0h|=2------------|-2----------0h|=2------------|
|--------------|--------------|--------------|--------------|


  Q  Q  E E E E   E E a E E +E  E E E   E E E E Q  E E   E E E E E E E E
|---------------|---------------------|---4-----2------|------------------|
|---------------|---0-2s3-2-(2)-0-----|--------------4-|-----3-2---2-0----|
|-2-----------0-|-2---------------2-0-|-2---0-2----2---|-0-2-----2-----0--|
|-------2-2-----|---------------------|----------------|------------------|


  Q  E E a E E E E   E E E E E E E E   E E E E E E E E   S S E E Q  E E E
|--------4h6-4-2---|-----------------|-------------2---|-4-2--------------|
|----------------4-|-3-2-0-----------|-0---2-0-4-2---4-|-----4-3-2--0-----|
|-2----2-----------|-------2-0---0-2-|---2-------------|--------------2-0-|
|------------------|-----------2-----|-----------------|------------------|


  Q Q. E +Q    S S E E Q  E E E   E E Q E S S S S E   S S E S S E S S E E S S
|---4--------|------------------|-----4-2-2-4-7-4-2-|-4-2---------------------|
|------------|---------0--------|-------------------|-----4-3-2-0-2-0---0---0-|
|-2----2-(2)-|-----0-2----2-0-1-|---2---------------|-----------------2---2---|
|------------|-0-2--------------|-------------------|-------------------------|


  Q  Q  S S S S E S S   E E E Q  E E E   E E E E E E E E   E E E E E E  Q
|----4--4-x-4-2-4-2-4-|-2--------------|-----------------|--------------------||
|---------------------|---4-3-2--0-----|-----------0-2-0-|-3-2-0---0-3s15\----||
|-2-------------------|------------2-0-|-2-----0-2-------|-------2------------||
|---------------------|----------------|---0-2-----------|--------------------||


  W          E E E E Q.   E   W          E E E E Q.   E
|----------|----------------|----------|------------------|
|----------|---5------------|----------|---5--------------|
|----------|-------5--------|----------|-------5----------|
|-5--------|--------------3h|=5--------|--------------3h==|


  W          E E E E H      W          E Q  E +E  Q.   a
|----------|--------------|----------|------------0s==12-|
|----------|---5----------|----------|---5---------------|
|----------|-------5------|----------|------5-(5)--------|
|-5--------|--------------|-5--------|-------------------|


  Q  E E Q   E E   E E E E E E Q Q   Q  E E Q  E E   E E E E E E Q    a
|--------2\------|-----------------|--------2------|-------0-----0s==12--|
|----------------|-0-1-2-0---------|---------------|-0-1-2-----0---------|
|-0----0-------0-|---------3-0-----|-0----0------0-|---------------------|
|----------------|-------------3-4-|---------------|---------------------|


  Q  E E Q  E E   E E E E E E E E   Q  E E E E E E    e  E E E  H    a
|--------2------|-------0---------|--------------0s|=12--------24s===0-|
|---------------|-0-1-2-----0-1-0-|-2--------2-0---|---------0---------|
|-0----0------0-|-----------------|----0-2---------|-------------------|
|---------------|-----------------|--------0-------|----15-------------|


  Q  E E Q  E E   E E E E E E Q    Q  E E Q  E E   E E E E E E Q     a
|--------2------|----------------|--------2------|-------0-----0s=|=12--|
|---------------|-0-1-2-0--------|---------------|-0-1-2-----0----|-----|
|-0----0------0-|---------3-0----|-0----0------0-|----------------|-----|
|---------------|-------------3--|---------------|----------------|-----|


  Q  E E Q  E E   E E E E E E E E   Q  E E E E E E    e  E E  E  H
|--------2------|-------0---------|--------------0s|=12---------------|
|---------------|-0-1-2-----0-1-0-|-2--------2-0---|------------------|
|-0----0------0-|-----------------|----0-2---------|----10------------|
|---------------|-----------------|--------0-------|---------10-10----|


   E E  E E  H      a  E E E  E E E  E  E
|-11-9------------|-9h11-9----------------|
|------11-9-------|----------11---9-------|
|-----------12----|-----------------12-12-|
|-----------------|-----------------------|


  a  E E  E E S S Q  S S    E S S +S  S  E S E S  E  E
|-9h11-9-----------------|-11---9-(9)-------------------|
|--------11-9-7h9-7--0-0-|----0-------0-11-0-9----------|
|------------------------|---------------------0-12-12--|
|------------------------|------------------------------|


  a  E E  E E  Q   E E    E E E  E E E  E E   Q.   E E E E E   E E E E E E E E
|-9h11-9---------------|-11-9---------------|-0------0---0---|-----------------|
|--------11-9--------0-|------0-11-0-9----0-|------0---0-----|-2-0-----2-0---0-|
|-------------12--12---|---------------12---|--------------2-|-----2-------2---|
|----------------------|--------------------|----------------|-------0---------|


  Q.   E E E E E   E E E E E E Q    H    Q  a  Q     H..        S  S
|-0------0---0---|----------------|-0----0--0s17\--|------------------|
|------0---0---0-|-2-0-------2-0--|----------------|-0---------12-12--|
|----------------|-----2----------|----------------|------------------|
|----------------|-------0-0------|----------------|------------------|


   E S S E S S E S S S S S S   W           Q   H    E S S
|-11-9-7-9-7-9-7-------------|----------|-----------------|
|----------------9-7-9-7-----|-0--------|-12\-------------|
|------------------------9-7-|----------|-----------------|
|----------------------------|----------|-------------5-5-|


  W          E E E E E E +E   a E   W          +E  E E E +E  Q.
|----------|----------------------|----------|--------------------|
|----------|---5------------------|----------|-------7------------|
|----------|-------5-5-3-(3)s10---|----------|---------5-(5)-3----|
|-5--------|--------------------3h|=5--------|-(5)-5--------------|


  W          +W           +W           +W
|----------|------------|------------|--------|
|----------|------------|------------|--------|
|----------|------------|------------|--------|
|-5--------|-(5)--------|-(5)--------|-(5)----|


   E  E  E  E  E  E  E  E    E  E  E  E  E  E  E  E
|-------------------------|-------------------------|
|-------------------------|-------------------------|
|-12-12-12-12-12-12-12-12-|-12-12-12-12-12-12-12-12-|
|-------------------------|-------------------------|


   E  E  E  E  E  E  E  E    E  S  a  S Q.    E  Q
|-------------------------|--------------------------|
|-------------------------|----10-12s14---------10---|
|-12-12-12-12-12-12-12-12-|-12---------------12------|
|-------------------------|--------------------------|


   E  E  E  E  E  E  E  E    E  E  E  E  E  E  E  E
|-------------------------|-------------------------|
|-------------------------|-------------------------|
|-12-12-12-12-12-12-12-12-|-12-12-12-12-12-12-12-12-|
|-------------------------|-------------------------|


   E  E  E  E  E  E  E  E    E  S  S  E  S  S  E  S  S  +S   S  E
|-------------------------|----------------------------------------|
|-------------------------|----------------------------------------|
|-12-12-12-12-12-12-12-12-|-12-------10-11----------10-(10)-11-12--|
|-------------------------|----10-12-------12-10-12----------------|


   E  E  E  E  E  E  E  E    E  E  E  E  E  E  E  E
|-------------------------|-------------------------|
|-------------------------|-------------------------|
|-12-12-12-12-12-12-12-12-|-12-12-12-12-12-12-12-12-|
|-------------------------|-------------------------|


   E  E  E  E  E  E  E  E    Q  E  E E  E  Q
|-------------------------|-12----14---12------|
|----------------------14-|---------------14---|
|-12-12-12-12-12-12-12----|--------------------|
|-------------------------|--------------------|


  E  E E  E E  E  E  E   E.  S  +E   E  +S   E.  E.  S
|----------------------|-------------------------------|
|---13---12------------|-------------------------------|
|----------------10-12-|--------------------17--18--19-|
|-------------12-------|----15-(15)-19-(19)------------|


   +E   E  +S   E.  E.  S  +E   E    +S   E.  E.  S  +E   E  Q
|------------------18-------------|------------------------------|
|------17-(17)-19------19-(19)-17-|-(17)-------------------------|
|-(19)----------------------------|------19--18--17-(17)-15------|
|---------------------------------|-------------------------17---|


   +H     E  Q.      +E   E  E  E  E  E  E E    a  H.      Q    W
|-----------------|--------------------------|----------------|------|
|-----------------|--------------------------|----------------|------|
|-----------------|---------16-17-19-17-16-0-|-10h12\---------|------|
|-(17)------19----|-(19)-15------------------|----------------|------|


   S S S  S S S  S S S  S S S  S S S  S   S S  S S S  S S S  S S S  S S S S S
|-14-0-0-12-0-0-14-0-0-12-0-0-11-0-0-12-|-0-0-16-0-0-12-0-0-11-0-0-12-0-0-0-0--|
|---------------------------------------|--------------------------------------|
|---------------------------------------|--------------------------------------|
|---------------------------------------|--------------------------------------|


   S S S  S S S  S S S  S S S  S S S  S   S S  S S S  S S S  S S S  S S S S S
|-14-0-0-12-0-0-14-0-0-12-0-0-11-0-0-12-|-0-0-16-0-0-12-0-0-11-0-0-12-0-0-0-0--|
|---------------------------------------|--------------------------------------|
|---------------------------------------|--------------------------------------|
|---------------------------------------|--------------------------------------|


   S S S S S S S S S S S S S S S S   S S S S S S S S S S S S S S S S
|-14-0-0-0-0-0-0-0-0-0-0-0-0-0-0-0-|-0-0-0-0-0-0-0-0-0-0-0-0-0-0-0-0--|
|----------------------------------|----------------------------------|
|----------------------------------|----------------------------------|
|----------------------------------|----------------------------------|


  S S S S S S S S S S  S  S  E  S  S    E  H.       E
|-0-0-0-0-0-0-0-0-0-0-12p10-12-10h12-|-10-------------|
|------------------------------------|----11----------|
|------------------------------------|-------------10-|
|------------------------------------|----------------|


                                2/4    4/4
   a  H     H      Wx23          H      Wx15
|----------------|-------------|------|---------|
|----------------|-------------|------|---------|
|-10h12\---------|-------------|------|---------|
|----------------|-------------|------|---------|


  W          E E E E Q.   E   W          E E E E H
|----------|----------------|----------|--------------|
|----------|---5------------|----------|---5----------|
|----------|-------5-5------|----------|-------5-5----|
|-5--------|--------------3-|-5--------|--------------|


  Q  E E Q  E E   E q  E Q  E E   Q  E E Q  E E   E  a   q   E  H      X3
|-2----9-9----9-|-9-7--7-7----2-|-2----9-9------|---------------------|
|---------------|---------------|-------------5-|-5/12----12-12-------|
|-0----7-7----7-|-7-5--5-5----0-|-0----7-7------|---------------------|
|---------------|---------------|-------------3-|-3/10----10-10-------|
  * Play chords with thumb and middle finger.

  W          +H        Q   Q   W          +H      S  S  S  S  Q
|-2--------|----------14--14-|-2--------|----------14--14-|
|-2--------|-----------------|-2--------|-----------------|
|-0--------|-(0)---12--12---|-0--------|-(0)----12--12---|
|----------|-----------------|----------|-----------------|


  q  Q  q  Q    q  Q  q  Q    W          
|-2-----2-----|-2-----2-----|-2--------| The live version does not end 
|-2-----2-----|-2-----2-----|-2--------| here. John plays some more 
|-0-----0-----|-0-----0-----|-0--------| stuff while Pete & Keith go 
|-------------|-------------|----------| nuts on stage. You try to           
                                         figure out what he plays!



***************************************************************************************
* Generated using Power Tab Editor by Brad Larsen - http://powertab.guitarnetwork.org *
***************************************************************************************

#----------------------------------PLEASE NOTE---------------------------------#
#This file is the author's own work and represents their interpretation of the #
#song. You may only use this file for private study, scholarship, or research. #
#------------------------------------------------------------------------------#

Disclaimer

A note on the content here:

The files archived on this site are the respective transcriber’s own work and represent their interpretations of the songs. You may only use these files for private study, scholarship or research. more on use of files >>

Section navigation

Tablature Section

Site info Navigation

Whotabs is not affiliated with The Who, its record company or management.