Whotabs – The Definitive Online Tablature and Gear Resource for The Who since 1997

Return to Whotabs

White City Fighting – bass tab

White City Fighting | bass tab
by Pete Townshend and Dave Gilmour
>From White City, 1985
Written by Pete Townshend and Dave Gilmour (c)1985 Eel Pie Publishing Ltd/Pink Floyd Music Publishers Ltd.

#----------------------------------PLEASE NOTE---------------------------------#
#This file is the author's own work and represents their interpretation of the #
#song. You may only use this file for private study, scholarship, or research. #
#------------------------------------------------------------------------------#

Tabbed by Stebbele

2012-03-09                                       Whotabs www.thewho.net/whotabs/
(Please print horizontal/landscape mode)

136 BPM

G  :----------------|----------------|----------------|----------------|----------------|----------------|----------------|----------------|
D  :----------------|----------------|----------------|----------------|----------------|----------------|----------------|----------------|
A  :----|=6==|------|----------------|--0-2---3-------|----------------|3-2-0-----------|----------------|--0-2---3-------|----------------|
E  :----------------|3-----3-3-------|3---------------|1-----1-1-------|------3-1-------|3-----3-3-------|3---------------|1-----1-1-------|

G  :----------------|----------------|----------------|----------------|----------------|----------------|----------------|----------------|
D  :--------3-------|----------------|----------------|----------------|----------------|----------------|----------------|----------------|
A  :----3-----3-----|--------------5-|--0-2---3-------|----------------|3-2-0-----------|--------------5-|--0-2---3-------|----------------|
E  :1-1---1-----1---|3-----3-3-------|3---------------|1-----1-1-------|------3-1-------|3-----3-3-------|3---------------|1-----1-1-------|

G  :----------------|----------------|----------------|----------------|----------------|----------------|----------------|----------------|
D  :--------3-------|----------------|----------------|----------------|----------------|----------------|----------------|----------------|
A  :----3-----3-----|----------------|--0-2---3-------|----------------|3-2-0-----------|----------------|--0-2---3-------|----------------|
E  :1-1---1-----1---|3-----3-3-------|3---------------|1-----1-1-------|------3-1-------|3-----3-3-------|3---------------|1-----1-1-------|

G  :----------------|----------------|----------------|----------------|----------------|----------------|----------------|----------------|
D  :----------------|--------------3-|----------------|----------------|----------------|--------------3-|----------------|----------------|
A  :------------0-3-|5-----------3---|5---------------|3---------------|3-----3---------|5-----------3---|5-----------3-2-|0-----------0-2-|
E  :1-----1-1-3-----|----------5-----|----------------|--------------3-|--------5-------|----------5-----|----------------|----------------|

G  :----------------|----------------|----------------|----------------|----------------|----------------|----------------|----------------|
D  :----------------|----------------|----5-----------|----------------|----------------|----------------|----------------|----------------|
A  :3---3-0---------|----------------|--3-------------|0---------------|----------------|5---------------|5---------------|0---------------|
E  :--------3-------|1---------------|1-------0-------|--------------0-|5-----5-3-------|----------------|----------------|----------------|

G  :----------------|----------------|----------------|----------------|----------------|----------------|----------------|----------------|
D  :----------------|----------------|----------------|----------------|----------------|----------------|----------------|----------------|
A  :3---------------|----------------|--0-2---3-------|----------------|3-2-0-----------|----------------|--0-2---3-------|----------------|
E  :----------------|3-----3-3-------|3---------------|1-----1-1-------|------3-1-------|3-----3-3-------|3---------------|1-----1-1-------|

G  :----------------|----------------|----------------|----------------|----------------|----------------|----------------|----------------|
D  :--------3-------|----------------|----------------|----------------|----------------|----------------|----------------|----------------|
A  :----3-----3-----|----------------|--0-2---3-------|----------------|3-2-0-----------|----------------|--0-2---3-------|----------------|
E  :1-1---1-----1---|3-----3-3-------|3---------------|1-----1-1-------|------3-1-------|3-----3-3-------|3---------------|1-----1-1-------|

G  :----------------|----------------|----------------|----------------|----------------|----------------|----------------|----------------|
D  :----------------|--------------3-|----------------|----------------|----------------|--------------3-|----------------|----------------|
A  :------------0-3-|5-----------3---|5---------------|3---------------|3-----3---------|5-----------3---|5-----------3-2-|0---------------|
E  :1-----1-1-3-----|----------5-----|----------------|--------------3-|--------5-------|----------5-----|----------------|----------------|

G  :----------------|----------------|----------------|----------------|----------------|----------------|----------------|----------------|
D  :----------------|----------------|----3---2-------|----------------|----------------|--------------3-|----------------|----------------|
A  :0-----0---------|----------------|--3-------2-----|0---------------|----------------|5-----------3---|5---------------|----------------|
E  :--------3-------|1---------------|1-----------0---|--------------0-|5-----5-3-------|----------5-----|----------------|1---------------|

G  :----------------|----------------|----------------|----------------|----------------|----------------|5-2-------------|----------------|
D  :----------------|----------------|----------------|----------------|----------------|----------2-3-2-|----2---2---5-3-|----------------|
A  :----------------|0---------------|----------------|----------------|----------------|----------------|------3---------|----------------|
E  :3---------------|----------------|----------------|----------------|----------------|----------------|----------------|----------------|

G  :----------------|-----------------|---------------|----------------|----------------|--------4-------|----------------|----------------|
D  :----------------|--2---0----------|---------------|----------------|----------------|----2-5---------|----------------|3---------------|
A  :----------------|----3------------|---0-3---------|----------------|----------------|--3-------------|----------------|----------------|
E  :----------------|-----------------|-------3-5-0-3-|1---------------|----------------|5---------------|--------3-------|----------------|

G  :----------------|----------------|----------------|----------------|----------------|----------------|----------------|----------------|
D  :----------------|----------------|----------------|----------------|--------3-------|----------------|----------------|----------------|
A  :----------------|----------------|--0-2---3-------|----------------|----3-----------|----------------|--0-2---3-------|----------------|
E  :----------------|3-----3-3-------|3---------------|1-----1-1-----1-|1-----1---------|3-----3-3-------|3---------------|1-----1-1-------|

G  :----------------|----------------|----------------|----------------|----------------|----------------|----------------|----------------|
D  :----------------|----------------|----------------|----------------|----------3-----|----------------|----------------|----------------|
A  :3-2-------------|----------------|--0-2---3-------|----------------|------------3---|----------------|--0-2---3-------|----------------|
E  :----5-3-1-3-5-1-|3-----3-3-------|3---------------|1-----1-1-------|1-----1-1-----1-|3-----3-3-------|3---------------|1-----1-1-----1-|

G  :----------------|----------------|----------------|----------------|5---------------|------------4---|4-4-------------|----------------|
D  :----------------|----------------|----------------|--------------7-|--7-5-3-2-------|----------------|----------------|----------------|
A  :----------------|----------------|--0-2---3-------|----------------|----------5-3-2-|--------5-5---5-|----5---3-------|----------------|
E  :1-----1-1-3-5-1-|3-----3-3-------|3---------------|1-----1-1-------|----------------|3-----3---------|------3---------|1-----1-1-------|

G  :----------------|----------------|----4--------9--|----------------|----------------|----------------|----------------|----------------|
D  :----------------|----------------|----------------|3-----3-3-----3-|3-----3-3-2-----|----------------|----------------|----------------|
A  :----------------|----------------|--5-------10----|----------------|------------5-3-|----------------|--0-2---3-------|----------------|
E  :1-----1-1-3-5-1-|3-----3-3-----3-|3-------8-------|----------------|----------------|3-----3-3-----3-|3---------------|1-----1-1-----1-|

G  :----------------|----------------|----------9-----|----------------|----------------|----------------|----------------|----------------|
D  :----------------|----------------|------------5---|----------------|----------------|----------------|----------------|----------------|
A  :----------------|--------5-5-5-5-|--0-2---3-----3-|----------------|----------------|--------5-5---5-|--0-2---3-------|----------------|
E  :1-----1-1-3-5-1-|3-----3---------|3---------------|1-----1-1-----1-|1-----1-1-3-5-1-|3-----3---------|3---------------|1-----1-1-----1-|

G  :----------------|----------------|------9---------|----------------|----------------|----------------|----------------|----------------|
D  :3---------3-----|----------------|----------------|----------------|----------------|----------------|----------------|----------------|
A  :----5-3---------|----------------|--0-2---3-------|----------------|3-2-------------|----------------|--0-2---3-------|----------------|
E  :--5-----1---1-2-|3-----3-3-------|3---------------|1-----1-1-----1-|----5-3-1-3-5-1-|3-----3-3-3---3-|3---------------|1-----1-1-----1-|

G  :----------------|----------------|9---------------|----------------|
D  :----------------|----------5-----|----------------|----------------|
A  :----------------|------------5-5-|3---------------|----------------|
E  :1-1-1-1-1-1-1-1-|3-----3-3-------|------1-1-----1-|1-----1-1-------|


#----------------------------------PLEASE NOTE---------------------------------#
#This file is the author's own work and represents their interpretation of the #
#song. You may only use this file for private study, scholarship, or research. #
#------------------------------------------------------------------------------#

Disclaimer

A note on the content here:

The files archived on this site are the respective transcriber’s own work and represent their interpretations of the songs. You may only use these files for private study, scholarship or research. more on use of files >>

Section navigation

Tablature Section

Site info Navigation

Whotabs is not affiliated with The Who, its record company or management.